Acordes para guitarra

Indice Rage Against The Machine

guitartabs





----------------------------------------------------------------------------
			  Maggie's Farm by Rage Against The Machine
----------------------------------------------------------------------------

Tabbed By : Mike Antoch
you can IM me at calmlikeabomb458 or metalhead569485

Tuning: D,A,D,G (drop D)

this song starts with guitar, then:

main riff:
G|--------------------------------------------------------------------------|
D|--------------------------------0-8-10-8-6-5-4----------------------------|
A|2-2-5-2-2-2-2-5-2-7-2-2-5-2-2-2-------------------------------------------|
D|--------------------------------------------------------------------------|

verse 1(not sure how many times):
G|--------------------------------------------------------------------------|
D|--------------------------------------------------------------------------|
A|2-2-5-2-2-2-2-5-2-7-2-2-5-2-2-2-------------------------------------------|
D|--------------------------------------------------------------------------|

verse 2(x4):
G|--------------------------------------------------------------------------|
D|--------------------------------------------------------------------------|
A|2-2-----2-----2-----------------------------------------------------------|
D|----x-x---x-x---x-x-x-x---------------------------------------------------|

verse 3(x4):
G|--------------------------------------------------------------------------|
D|--------------------------------------------------------------------------|
A|2-2-5-2-2-2-2-5-2-7-------------------------------------------------------|
D|--------------------------------------------------------------------------|

verse 4:
G|--------------------------------------------------------------------------|
D|--------------------------------------------------------------------------|
A|0-0-0-0-0-0-0-0-----------------------------------------------------------|
D|----------------2-2-2-2-2-2-2-2-------------------------------------------|

then play verse 2
then play verse 4

NOW REPEAT EVEYTHING YOU JUST DID ONE MORE TIME

then the solo, i couldnt hear the bass to well here so it may be a little off(x8):
G|--------------------------------------------------------------------------|
D|--------------------------------------------------------------------------|
A|2-----\-------------------------------------------------------------------|
D|--------------------------------------------------------------------------|

then the guitar intro again but in between do this(x4):
G|--------------------------------------------------------------------------|
D|--------------------------------------------------------------------------|
A|5-7-----------------------------------------------------------------------|
D|--------------------------------------------------------------------------|
listen to the song and you'll get what I mean

then play verse 4
then verse 2
then verse 4


now the main riff but slower(twice with only guitar then the bass kicks in with the drums)(x3):
G|--------------------------------------------------------------------------|
D|----------------------------0-8-10-8-6-5-4--------------------------------|
A|2-2-5-2-2-2-2-5-2-7-2-2-5-2-----------------------------------------------|
D|--------------------------------------------------------------------------|

after that play this every other time(x4):
G|--------------------------------------------------------------------------|
D|----------------------------7--2------------------------------------------|
A|2-2-5-2-2-2-2-5-2-7-2-2-5-2-----------------------------------------------|
D|--------------------------------------------------------------------------|
do that until the end
thats the song
enjoy!

| /  slide up
| \  slide down
| h  hammer-on
| p  pull-off
| ~  vibrato
| +  harmonic
| x  Mute note
Acordes para guitarra
x

Todo acerca de Rage Against The Machine