Acordes para guitarra

Indice Rage Against The Machine

guitartabs





I think this is easier to play than the album version + it sounds just as
good... well I think it does. And I would tab out the whole song, but it's pretty much
the same as the album with only 2 little differences. This is the only significant change.

Not sure if he bends or uses wammy for the 1st part... probably bends it
from the sound of it and from lookin at the dvd.

                                                  (~=hold,but very short)
e--12^14--12^14--12^14--12^14--12^14--12^14--12^14--12^14~-12^14--12^14--|
B------------------------------------------------------------------------|
G------------------------------------------------------------------------|
D------------------------------------------------------------------------|
A------------------------------------------------------------------------|
E------------------------------------------------------------------------|

e--12-12-12-12-12^14-12^14-12-12-12-12-12-12^14-12^14-12-12-12-12--|
B------------------------------------------------------------------|
G------------------------------------------------------------------|
D------------------------------------------------------------------|
A------------------------------------------------------------------|
E------------------------------------------------------------------|

e--12-12-12-12-14-12---------------|
B--------------------14-12-10------|
G-----------------------------11~--|
D----------------------------------|
A----------------------------------|
E----------------------------------|

e------------------------------------------17h19h21-------17h19h21--|
B----------------------------------17h19h21--------17h19h21---------|
G----------14h16h18--------14h16h18---------------------------------|
D--14h16h18--------14h16h18-----------------------------------------|
A-------------------------------------------------------------------|
E-------------------------------------------------------------------|

e------------------------------------------17h19h21-------17h19h21--|
B----------------------------------17h19h21--------17h19h21---------|
G----------14h16h18--------14h16h18---------------------------------|
D--14h16h18--------14h16h18-----------------------------------------|
A-------------------------------------------------------------------|
E-------------------------------------------------------------------|

e----------17----17----17---17------|
B--17h19h21--21----21----21---21~~--|
G-----------------------------------|
D-----------------------------------|
A-----------------------------------|
E-----------------------------------|

The rest is the same as the album... well apart from its live... aside from
Acordes para guitarra
x

Todo acerca de Rage Against The Machine