Acordes para guitarra

Indice Rage Against The Machine

guitartabs





Rage Against The Machine-Killing In The Name .
  
this is an easier way to play the song-drop D tuning
intro
e---
b--3
g--2     x3
d--0
a--0
d--0

a-----666---666---666---666-
d--000---000---000---000----

g--------11/12---------11/12-------11/12--------11/12b
d---11/12---------11/12--------11/12-------11/12
a--------------------------------------------------
d000-----------000----------000---------000
repeat

a----666---666---666---6 hold
d-000---000---000---000

g------------------------------------------------
d------3h4-------------repeat lots--------------------
a---3h5---5--2/3/2--------------------------------    d-0--------0-2/3/2-----------------------------------
then

b--------------------------
g-----4b-----3------2----------
d------------------------------      repeat 
a--3h5----3/5----3/5--0h2/3/2/3/2---------------
d-o------0------0-----0h2/3/2/3/2----------

g----7-7-7-------------------7-7-7-x-7----
d----------repeat lots then--------x----3h5----repeat
a----5-5-5-------------------5-5-5-x-5--3h5-------
d---------------------------------------3h5------- 
:: Ultimate Guitar Archive :: 
http://www.ultimate-guitar.com 



Acordes para guitarra
x

Todo acerca de Rage Against The Machine