Acordes para guitarra

Indice Rage Against The Machine

guitartabs





GUERILLA RADIO
RAGE AGAINST THE MACHINE
THE BATTLE OF LOS ANGELES

Intro
|-------------------|
|-------------------|
|-------------------|

Intro Prt.2/Chorus 
|-----------------------------------------------|
|-----------------------------------------------|x3
|-----------------------------------------------|
|--0-2-2-02-02—5-7-------0-2-2-02-02—5-7--------|

Verse
|-----------------------------------------------|
|----33-44-55------------------33-44-55---------|x3
|-----------------------------------------------|
|----------------3p0-----------------------3p0--|

//BIG REST\\

Outro
|-----------------------------------------------|
|-----------------------------------------------|x6
|--------1/11\--------1/11\--------1/11\--------|
|--00-0---------00-0---------00-0---------XXXXXX|

This song is really easy to learn but hard to master
Acordes para guitarra
x

Todo acerca de Rage Against The Machine