Acordes para guitarra

Indice Ragazzi

guitartabs

===================================================
* Ragazzi                                         *
* ALGUIEN MENOS TU                                *
* ---???---                                       *
* ---???--- ()                                    *
============================================TAB====

Hola este es solo el requinto que se toca en la introducción y en medio 
de la canción... esta en base a las notas que se siguen el acompañamiento 
que mandó Ricardo Vidal (La mayor).

   A                          C#m                  D <--Acompañamiento
e|----------------------4-----------------------------------------------
B|-3/5-5-5-5-5-5-5--5-7--7-5--3/5-5-5-5-5-5-5--5-5-5--3-3-3--2-2-2--0-0-
G|----------------------------------------------------------------------
D|----------------------------------------------------------------------
A|----------------------------------------------------------------------
E|----------------------------------------------------------------------

     E   |Se repite una vez más hasta aquí
e|-------|---|0---0--|
B|-----0-0---|-2---2-|
G|-2-2-------|--2----|
D|-----------|-------|
A|-----------|-------|
E|-----------|-------|
             A <-- Posición de los dedos

===================================================
Colaboracion de Richard Neil Flores Duran



Acordes para guitarra
x

Todo acerca de Ragazzi