Acordes para guitarra

Indice Ra

guitartabs





Author/Artist: Ra
Title: Do You Call My Name
Album: Self Titled I think...
Transcribed by: Matt Collins

Intro
-------------------------------------------------------------------------
------------------------------------------------------------------------- Repeat
-----1------1-2-4-----1-----------------1------1-2-4------1-------------- 2 more    
-3-2----3-2-------3-2---3-2-----3p2-3p2----3-2--------3-2----3-2--------- times.
----------------------------2-3----------------------------------2-3-----
-------------------------------------------------------------------------
                                                                              
End intro with this
--------2--3-------------------------------------------------------------
--------2--3-------------------------------------------------------------
--------2--3—--let each chord ring---------------------------------------
------0-2--3-------------------------------------------------------------
--2-3---2--3-------------------------------------------------------------
--------2--3-------------------------------------------------------------
                                                                              
Verse/Chorus
-----3-3-2-2------3-3-2-2------------------------------------------------
------------------------------1-1-0-0------------------------------------
-------------------------------------------------------------------------
-------------------------------------------------------------------------
-------------------------------------------------------------------------
-222---------2222---------222--------------------------------------------
                                                                              
Pre-chorus
----------------------------------------------------------------------------
----------------------------------------------------------------------------
----------------------------------------------------------------------------
-10-10-10-10-9-9-9-9--10-10-10-10-9-9-9-9--10-10-10-10-9-9-9-9--5-5-5-5-2-2-
-10-10-10-10-9-9-9-9--10-10-10-10-9-9-9-9--10-10-10-10-9-9-9-9--5-5-5-5-2-2-
-10-10-10-10-9-9-9-9--10-10-10-10-9-9-9-9--10-10-10-10-9-9-9-9--5-5-5-5-2-2-
  
 Verse
 The solo is the same as the intro.
 Pre-Chorus
 Chorus 2X                                                                       

This is my first tab so cut me some slack if it's wrong,
Acordes para guitarra
x

Todo acerca de Ra