Acordes para guitarra

Indice Oasis

guitartabs





Song Title: Champagne Supernova
Artist: Oasis
----------------------------------------------

By Johari Taylor


Main Part:	
					   _______      ________
						 |all ex. last |last
|------------|-----------|-----------|------------|-----------|
|*-----------|-----------|-----------|-----------*|-----------|
|*-----------|-----------|-----------|-----------*|-----------|
|--5-------5-|-3-------3-|-2-------2-|-0-------0--|-0-0-0-1-3-|
   1 2 3 4 &   1 2 3 4 &   1 2 3 4 &   1 2 3 4 &    1 2 3 4 &

"Cause People Believe...":
|---------|---------|---------|---------|---------|---------|
|---------|---------|---------|---------|---------|---------|
|---------|---------|---------|---------|---------|-5-5-5-5-|
|-3-3-3-3-|-3-3-3-3-|-5-5-5-5-|-5-5-5-5-|-3-3-3-3-|---------|
  1 2 3 4   1 2 3 4   1 2 3 4   1 2 3 4   1 2 3 4   1 2 3 4

|---------|---------|
|-2-2-2-2-|-2-2-2-2-|
|---------|---------|
|---------|---------|
  1 2 3 4   1 2 3 4

Solo:
						   ____	   
						  |4.		  
|------------|-----------|-----------|------------|-------------|
|*-----------|-----------|-----------|-----------*|-------------|
|*-----------|-----------|-----------|-----------*|-------------|
|--5-5-5-5-5-|-3-3-3-3-3-|-2-2-2-2-2-|-0-0-0-0-0--|-1-1-3-3-3-3-|
   1 2 3 & 4   1 2 3 & 4   1 2 3 & 4   1 2 3 & 4    1 2 3 & 4 &  
|-------------|-------------|---------|
|-------------|-------------|---------|
|-------------|-------------|---------|
|-1-1-3-3-3-3-|-1-1-3-3-3-3-|-5-------|
  1 2 3 & 4 &   1 2 3 & 4 &   1 2 3 4




Acordes para guitarra
x

Todo acerca de Oasis