Acordes para guitarra

Indice Oasis

guitartabs





Band:Oasis
Song: Wonderwall
Tuning:Standard
Difficulty:Beginner
Tabber:Kyle

  After needing a bass tab for this song and coming onto the site i saw there wasnt
actually many bass tabs for this song, 1 infact, i needed it because i was covering it
for a gig and therefore with some help from friends figured out a good bass line for it


Intro:
       E       G                            D         A
G:-----------------------------------------777-------------------|
D:--------10-10-10-10-10-10-10-10-10-10------------7777777-------|
A:--777----------------------------------------------------------|
E:---------------------------------------------------------------|

Verse:
       E       G                            D         A
G:-----------------------------------------777-------------------|
D:--------10-10-10-10-10-10-10-10-10-10------------7777777-------|
A:--777----------------------------------------------------------|
E:---------------------------------------------------------------|

Pre Chorus: (And All the roads that lead you there...)
       C           D                    E
G:---------------------------------------------------------------|
D:---------------------------------------------------------------|
A:---------------------------------------------------------------|  X2
E:----8888----10-10-10-10----12-12-12-12-12-12-12-12-------------|

(And There Are many things that id like to say to you...)
       C           D              G           A
G:---------------------------------------------------------------|
D:---------------------------10-10-10-10-12-12-12-12-------------|
A:---------------------------------------------------------------|
E:----8888----10-10-10-10----------------------------------------|

Outro:
       E       G                            D         A
G:-----------------------------------------777-------------------|
D:--------10-10-10-10-10-10-10-10-10-10------------7777777-------|
A:--777----------------------------------------------------------|
E:---------------------------------------------------------------|


This is my first tab so i hope it gets put up, if you have any comments or changes that
Acordes para guitarra
x

Todo acerca de Oasis