Acordes para guitarra

Indice Oasis

guitartabs





Title:  'Who Feels Love'
Artist: Oasis
Album:  Standing On the Shoulder of Giants


 Note: Tune your guitar to OPEN G (D G D G B D).
 


 Intro: (0:16)

D -----5--5--5-5--5-5--|
B -----3--3--3-3--3-3--|
G -----0--0--0-0--0-0--|
D -----0--0--0-0--0-0--|
G -----0--0--0-0--0-0--|
D -(3)-5--5--3h5--3h5--|



 Verse 1: (0:29)

D -----5--5--5-5--5-5--|
B -----3--3--3-3--3-3--|
G -----0--0--0-0--0-0--|
D -----0--0--0-0--0-0--|
G -----0--0--0-0--0-0--|
D -(3)-5--5--3h5--3h5--|

Found what I lost inside
My spirit has been purified
Take a thorn from my pride
And hand in hand we'll take a walk outside


 Chorus 1: (1:19)

D -0--0------0------0---------0--0------0------0--|
B -1--1--1-----1----1---------1--1--1-----1----1--|
G -0--0----0-----0--0---------0--0----0-----0--0--|
D -3--3-------------3---------2--2-------------2--|
G -3--3-------------3---------2--2-------------2--|
D ------------------------------------------------|
 Thank You for the sun, The one that shines on everyone

D ----0--0-----0--0--|
B ----3--3-----3--3--|
G ----0--0-----0--0--|
D ----5--5-----0--0--|
G ----5--5--5--4--4--|
D -------------------|
 Who feels love?

D -0--0------0------0---------0--0------0------0--|
B -1--1--1-----1----1---------1--1--1-----1----1--|
G -0--0----0-----0--0---------0--0----0-----0--0--|
D -3--3-------------3---------2--2-------------2--|
G -3--3-------------3---------2--2-------------2--|
D ------------------------------------------------|
 Now there's a million years, between my fantasies and fears

D -----5--5--5--5--|
B -----3--3--3--3--|
G -----0--0--0--0--|
D -----0--0--0--0--|
G -----0--0--0--0--|
D -----5--5--5--5--|            
  I feel love


 Verse 2: (1:57)

D -----5--5--5-5--5-5--|
B -----3--3--3-3--3-3--|
G -----0--0--0-0--0-0--|
D -----0--0--0-0--0-0--|
G -----0--0--0-0--0-0--|
D -(3)-5--5--3h5--3h5--|

Leaving all that I see
Now all my emotions fill the air I breath


 Chorus 2: (2:22)

D -0--0------0------0---------0--0------0------0--|
B -1--1--1-----1----1---------1--1--1-----1----1--|
G -0--0----0-----0--0---------0--0----0-----0--0--|
D -3--3-------------3---------2--2-------------2--|
G -3--3-------------3---------2--2-------------2--|
D ------------------------------------------------|
 Now you understand, That this is not the promised land 

D ----0--0-----0--0--|
B ----3--3-----3--3--|
G ----0--0-----0--0--|
D ----5--5-----0--0--|
G ----5--5--5--4--4--|
D -------------------|
 they spoke of

D -0--0------0------0---------0--0------0------0--|
B -1--1--1-----1----1---------1--1--1-----1----1--|
G -0--0----0-----0--0---------0--0----0-----0--0--|
D -3--3-------------3---------2--2-------------2--|
G -3--3-------------3---------2--2-------------2--|
D ------------------------------------------------|
 There's nothing more to be, If you could be the remedy 
 
D -----5--5--5--5--|
B -----3--3--3--3--|
G -----0--0--0--0--|
D -----0--0--0--0--|
G -----0--0--0--0--|
D -----5--5--5--5--|     
 who heals love


 (2:47)

D -----0-------0-------0-------0----|
B ---0---0---0---0---0---0---0---0--|
G ----------------------------------|
D -5-------3-------2-------0--------| x3
G ----------------------------------|
D ----------------------------------|


D -----0-------0-------0-------0-------0-------0-------0-------0----|
B ---0---0---0---0---0---0---0---0---0---0---0---0---0---0---0---0--|
G ------------------------------------------------------------------|
D -5-------3-------2-------2-------1-------1-------1-------1--------|
G ------------------------------------------------------------------|
D ------------------------------------------------------------------|


 (3:18)

   D -------------3--5--9--10--|
   B ----------3---------------|
   G -0--4--5------------------|
1  D --------------------------| x4
   G --------------------------|
   D --------------------------|


   D -----5--5--5-5--5-5--|
   B -----3--3--3-3--3-3--|
   G -----0--0--0-0--0-0--|
2  D -----0--0--0-0--0-0--|
   G -----0--0--0-0--0-0--|
   D -(3)-5--5--3h5--3h5--|
       (keep playing)


 (3:40)

   D ----------------------------------------------|
   B -15b--15b--15s13-(12)---15b--15b--15s13-(12)--|
   G ----------------------------------------------|
1  D ----------------------------------------------|
   G ----------------------------------------------|
   D ----------------------------------------------|
       (keep playing)

   D -0-0-0---0-0-0---0-0-0---0-0-0--|
   B -1-1-1---1-1-1---3-3-3---3-3-3--|
   G -0-0-0---0-0-0---0-0-0---0-0-0--|
2  D -3-3-3---2-2-2---5-5-5---0-0-0--|
   G -3-3-3---2-2-2---5-5-5---4-4-4--|
   D --------------------------------|
       (twice)


 Chorus 3: (4:04) (Same as Chorus 1-2)

I thank you for the sun
The one that shines on everyone
Who feels love?
Now there's a million years 
between my fantasies and fears
I feel love

I thank you for the sun
The one that shines on everyone
Who feels love?
Now there's a million years 
between my fantasies and fears
I feel love


 Outro: (4:55)

   D -----0-------0-------0-------0----|
   B ---0---0---0---0---0---0---0---0--|
   G ----------------------------------|
1  D -5-------3-------2-------0--------| (repeat to fade)
   G ----------------------------------|
   D ----------------------------------|

   D -------------3--5--9--10--|
   B ----------3---------------|
   G -0--4--5------------------|
2  D --------------------------| [ Starts at (5:08) ]
   G --------------------------|
   D --------------------------|

Acordes para guitarra
x

Todo acerca de Oasis