Acordes para guitarra

Indice Oasis

guitartabs





Who Feels Love? - Oasis
Standing on the Shoulder of Giants
Tabbed on 2 March, 2000

Intro/Verse

G-----------------------------------------------------
D-----------------------------------------------------
A----10--8-10-8-10-10-8h10----10--8-10-8-10-10-8h10---
E-7------------------------7------------------------7-

Repeat this riff over and over.

Chorus/Solo

G----------------------------------------------------------
D-------------------------------------------------5-5-5-5-5
A-2-2-2-2-2-2-2-2-0-0-0-0-0-0-0-0-3-3-3-3-3-3-3-3----------
E----------------------------------------------------------

G-------
D-5-5-5-
A-------
E-------

He also throws in this bit at the end, during the outro:

G-8-7-------------
D-----9-7---------
A---------8-10-10-
E-----------------

This is a great song, my favorite off of the new album. Email me at 
Acordes para guitarra
x

Todo acerca de Oasis