Acordes para guitarra

Indice Oasis

guitartabs





 e-------------------------------12h14p12-15b17-12------
 b-15b17-15 12h14p12----------15b17-15-------------15b17-15
 g-----------------14-12--------------------------------
 d-----------------------14-----------------------------
 a------------------------------------------------------
 e------------------------------------------------------

 e--------------------------------------------------------------
 b-7-9-7--------------------------------------------------------
 g-------9-7-7h9------------------------------------------------
 d-----------------------6h8b9-8-6---8b9-8b9-8b9-6--------------
 a---------------6h8-6h8-----------8---------------8-6----------
Acordes para guitarra
x

Todo acerca de Oasis