Acordes para guitarra

Indice Oasis

guitartabs





-------------------------------------------------------------------------------
			     TURN UP THE SUN (outro) - Oasis
-------------------------------------------------------------------------------
Tabbed by: Paul Flounders

Tuning: Normal oasis tuning

An amazing little guitar bit at the outro by Noel. Enjoy!!


| /  slide up
| \  slide down
| h  hammer-on
| p  pull-off
| ~  vibrato
| +  harmonic
| x  Mute note


e|--------------------------------------------------------------------------|
B|----------7-8-7-----------------------------7-----------------------------|
G|--7-6-7h9-------9-7-9-7-6---7-----6-7-6-7h9---9-7-6-7-6-------------------|
D|--------------------------9-----------------------------9-7---------------|
A|--------------------------------------------------------------------------|
E|--------------------------------------------------------------------------|

e|--------------------------------------------------------------------------|
B|----------5-6-5-----------------------------5-----------------------------|
G|--5-6-5h7-------7-5-7-5-4---5-----4-5-4-5h7---7-5-4-5-4-------------------|
D|--------------------------7-----------------------------7-5---------------|
A|--------------------------------------------------------------------------|
E|--------------------------------------------------------------------------|

Acordes para guitarra
x

Todo acerca de Oasis