Acordes para guitarra

Indice Oasis

guitartabs





Intro - Hold each note for 4 beats
|----------------------------------|     
|----------------------------------|     
|--2---0---0-----------------------|   
|--------------3---0---2---3---2---|

|-----------------------|     
|-----------------------|     
|--2-2-2-2-2-2-0p2-0h2--|X4    
|-----------------------|      

Verse
|-----------------------|     
|-----------------------|     
|--2-2-2-2-2-2-0p2-0h2--|X4    
|-----------------------|      


|-----------------------|
|--2-2-2-2-2-2-0p2p0h2--|
|-----------------------|x2
|-----------------------|

|-----------------------|     
|-----------------------|     
|--2-2-2-2-2-2-0p2-0h2--|X2    
|-----------------------|

      
Chorus
|---------------------------------|
|---------------------------------|
|------------------------5-5-4-4--|
|-3-3-3-3-3-3-3-0-0-0-0-----------|

|-----------------------|     
|-----------------------|     
|--2-2-2-2-2-2-0p2-0h2--|X2    
|-----------------------|

Back To verse

Outro Hold each note for 4 beats – repeat twice then end on a B.
|----------------------------------|
|----------------------------------|
|--2---0---0-----------------------|   
|--------------3---0---2---3---2---|


Acordes para guitarra
x

Todo acerca de Oasis