Acordes para guitarra

Indice Oasis

guitartabs





(It's Good) To Be Free-Oasis
B-Side of Whatever, also found on the Masterplan

Intro

G----------------------------------------------------------
D----------------------------------------------------------
A-------------------------------3--3-1-3-2-3-1-3--3-1-3-2-3
E-2--2-0-2-1-2-0-2--2-0-2-1-2-0----------------------------

G---
D---
A-1-
E---		x2

Verse

G----------------------------------------------------------
D----------------------------------------------------------
A-------------------------------3--3-1-3-2-3-1-3--3-1-3-2-3
E-2--2-0-2-1-2-0-2--2-0-2-1-2-0----------------------------

G----------------------------------------------------------
D----------------------------------------------------------
A-1--------------------------------------------------------
E----5-5-5-5-5-5-5-5-5-5-5-5-5-5-5-5-0-0-0-0-0-0-0-0-0-0-0-

G-----------
D-----------
A-----------
E-0-0-0-0-0-	x2


Chorus

	It's the little things...

G----------------------------------------------------------
D----------------------------------------------------------
A-3-3-3-3-5-5-5-5------------------3-3-3-3-5-5-5-5---------
E-----------------2--0-2-1-2-0-2-0-----------------2--0-2-1

G----------------------------------------------------------
D----------------------------------------------------------
A----------------------------------------------------------
E-2-0-2-0-5-5-5-5-5-5-5-5-5-5-5-5-5-5-5-5-0-0-0-0-0-0-0-0-0

G---------------
D---------------
A---------------
E-0-0-0-0-0-0-0-	


During solo just play chorus part.

Acordes para guitarra
x

Todo acerca de Oasis