Acordes para guitarra

Indice Oasis

guitartabs

var	lcnt		=	68;
chords["A"]= "x02220";
freds["A"]= "1";
alts["A"]= "......";
chords["D"]= "xx0232";
freds["D"]= "1";
alts["D"]= "......";
chords["E"]= "022100";
freds["E"]= "1";
alts["E"]= "......";
chords["C"]= "x32010";
freds["C"]= "1";
alts["C"]= "3.....";
chords["F"]= "133211";
freds["F"]= "1";
alts["F"]= "......";
chords["Fmaj7"]= "1x3210";
freds["Fmaj7"]= "1";
alts["Fmaj7"]= ".3....";
chords["G"]= "320003";
freds["G"]= "1";
alts["G"]= "......";


Submitter: TheCatInTheHat
Artist: Oasis
Song: The Hindu Times


*Capo on 2nd fret*

Chords:
G  = 320003 or 320033


Riff 1:
e|--------------------------|
B|--------------------------|
G|-8h9-8b9-----8h9-11-9-8b9-|
D|---------9-9--------------|
A|--------------------------|
E|--------------------------|

Riff 2:
e|---------------------|
B|---------------------|
G|-8h9-8b9-----8h9-8b9-|
D|---------9-9---------|
A|---------------------|
E|---------------------|


Intro:

e|-----------------------------------------------|
B|-----------------------------------------------|
G|-8h9-8b9-----8h9-11-9-8b9--8h9-8b9-------------|
D|---------9-9-----------------------9-9-7-7-9-9-|
A|-----------------------------------------------|
E|-----------------------------------------------|



Verse 1:
I get up, when I'm down
I can't swim, but my soul won't drown
I do believe, I got flair
I got speed, and I walk on air


Chorus:
Cos God gave me soul,            
               A         *Riff 1*
in your rock n roll babe
Cos God gave me soul,            
               A         *Riff 1*
In your rock n roll babe 
And I get so high, 
I just can't feel it
And I get so high, 
  D                       *Riff 2*
I just can't feel it
In and out my brain,  
Running through my veins
You're my sunshine, 
You're my rain


e|-----------------------------------------------|
B|-----------------------------------------------|
G|-8h9-8b9-----8h9-11-9-8b9--8h9-8b9-------------|
D|---------9-9-----------------------9-9-7-7-9-9-|
A|-----------------------------------------------|
E|-----------------------------------------------|



Verse 2:
There's a light that shines on
                                 
Shines on me, 
And it keeps me warm
It gives me peace, I must say
                   
I can't sleep, 
Cos the world won't wait


Chorus:
Cos God gave me soul,            
               A         *Riff 1*
in your rock n roll babe
Cos God gave me soul,            
               A         *Riff 1*
In your rock n roll babe 
And I get so high, 
I just can't feel it
And I get so high, 
  D                       *Riff 2*
I just can't feel it
In and out my brain,  
Running through my veins
You're my sunshine, 
You're my rain


e|------------------------------------------------|
B|------------------------------------------------|
G|-8h9-8b9-----8h9-11-9-8b9--8h9-8b9--------------|
D|---------9-9------------------------9-9-7-7-9-9-|
A|------------------------------------------------|
E|------------------------------------------------|

e|-------------------------------------|
B|-13h14-13b14-------13h14-16-14-13b14-|
G|-------------13-13-------------------|
D|-------------------------------------|
A|-------------------------------------|
E|-------------------------------------|

e|--------------------------|
B|--------------------------|
G|-8h9-8b9-----8h9-11-9-8b9-|
D|---------9-9--------------|
A|--------------------------|
E|--------------------------|

e|-------------------------------------|
B|-13h14-13b14-------13h14-16-14-13b14-|
G|-------------13-13-------------------|
D|-------------------------------------|
A|-------------------------------------|
E|-------------------------------------|

e|--------------------------|
B|--------------------------|
G|-8h9-8b9-----8h9-11-9-8b9-|
D|---------9-9--------------|
A|--------------------------|
E|--------------------------|


Chorus:
And I get so high, I just can't feel it
And I get so high, I just can't feel it
And I get so high, I just can't feel it
And I get so high, I just can't feel it
In and out my brain, and running through my veins
You're my sunshine, you're my rain


Outro:
e|-----------------------------------------------|
B|-----------------------------------------------|
G|-8h9-8b9-----8h9-11-9-8b9--8h9-8b9-------------|
D|---------9-9-----------------------9-9-7-7-9-9-|
A|-----------------------------------------------|
Acordes para guitarra
x

Todo acerca de Oasis