Acordes para guitarra

Indice Oasis

guitartabs

var	lcnt		=	21;
chords["B"]= "x2444x";
freds["B"]= "1";
alts["B"]= "2....2";
chords["E5"]= "022xxx";
freds["E5"]= "1";
alts["E5"]= "......";
chords["F#5"]= "244xxx";
freds["F#5"]= "1";
alts["F#5"]= "......";
chords["D5"]= "xx023x";
freds["D5"]= "1";
alts["D5"]= "......";
chords["G5"]= "355xxx";
freds["G5"]= "1";
alts["G5"]= "......";
chords["A5"]= "x022xx";
freds["A5"]= "1";
alts["A5"]= "......";


OASIS : THE HINDU TIMES

From the album "Heathen Chemistry" and the single "The Hindu Times".
Lyrics by: Noel Gallagher


Chords used:

B    (7,9,9,8,7,7)
E5   (7,7,9,9,9,7)
F#5  (9,9,11,11,11,9)
D5   (5,5,7,7,7,5)
G5   (10,10,12,12,12,10)
A5   (12,12,14,14,14,12)

Main riff
e------------------------------------------------
B------------------------------------------------
G--8-9-8~~-----8-9-9b11-8~~--8-9-8~~-------------
D----------9-9-----------------------9--777-999--
A------------------------------------------------
E------------------------------------------------

Verse
I get up when i'm down
I can't swim but my soul won't drown
I do believe i've got flair
I got speed and i walk on air


Bridge
Cos god give me a soul in your rock n' roll babe
cos god give me a soul in your rock n' roll babe

Chorus
and i get so high i just can't feel it
and i get so high i just can't feel it
In and out my brain running through my veins
You're my sunshine you're my rain

There's a light that shines on
Shines on me and it keeps me warm
It gave me peace I must say
I can't sleep cos the world won't wait

Cos god give me a soul in your rock n' roll babe
Cos god give me a soul in your rock n' roll babe

And I get so high i just can't feel it
And I get so high i just can't feel it
In and out my brain running through my veins
You're my sunshine you're my rain

Solo
e-------------------------------------------------------
B--9-10-9~~-----9-10-10b12-9~~--------------------------
G-----------9-9-----------------8-9-8~~-----8-9-9b11-8--  x2
D---------------------------------------9-9-------------
A-------------------------------------------------------
E-------------------------------------------------------

And I get so high I just can't feel it
And I get so high I just can't feel it
And I get so high I just can't feel it
And I get so high I just can't feel it


In and out my brain running through my veins
Acordes para guitarra
x

Todo acerca de Oasis