Acordes para guitarra

Indice Oasis

guitartabs







 E--------------------------------------------------------------------------------------
 B--------------------------------------------------------------------------------------
 G------16b------16------14-----16------14------------------------14--------------------
 D-------------------------------------------16-----14----16--------------16---------14-
 A--------------------------------------------------------------------------------------
 E--------------------------------------------------------------------------------------

 E--------------------------------------------------------------------------------------
 B-------------------------------17-------14--------------------------------------------
 G------16b------16------14-------------------------16-----------14---------------------
 D--------------------------------------------------------------------------------------
 A--------------------------------------------------------------------------------------
 E--------------------------------------------------------------------------------------

 E--------------------------------------------------------------------------------------
 B--------------------------------------------------------------------------------------
 G---------------14---17----------------14v---------------------------------------------
 D----14---17----------------14---17----------------------------------------------------
 A--------------------------------------------------------------------------------------
Acordes para guitarra
x

Todo acerca de Oasis