Acordes para guitarra

Indice Oasis

guitartabs





Artist: oasis
Title: supersonic

b-tab by eivind...

normal tuning.. e,a,d,g
the bass comes in on the verse:
g--------------|
d--------------|
a--------0022--|
e-220h222------|
   I need to be myself...

bridge:
g----------------|------------------
d----------------|-----------------
a----------------|--------44444444
e-0000000-222222-|0000000----------

ref: (played quick)
g----------|----------|
d----2-----|----2-----|
a-2h4-4-2--|-2h4--4-2-|
e--------0-|---------2|

when the sing ah ah
g-------------------|
d-------------------|
a-----------------4-(let ring a little)
e--0-(let ring)-2---|

this is it...hope you enjoi it..
Acordes para guitarra
x

Todo acerca de Oasis