Acordes para guitarra

Indice Oasis

guitartabs





Bring It on Down- Oasis
Definitely Maybe
Tabbed on 17 February, 2000

Intro/Verse

G----------------------------------------------------------
D----------------------------------------------------------
A-2-2-2--2-0-0-0-2-2-2--2-0-0-0-2-2-2--2-0-0-0-2-2-2--2-0-0
E----------------------------------------------------------

G----------------------------------------------------------
D----------------------------------------------------------
A-0-0-5--5--5-5-5-7-7--7-5-5--5--2-2-2--2-0-0-0-2-2-2--2-0-
E----------------------------------------------------------

G-----
D-----
A-0-0-
E-----	x2		

Pre- Chorus

	You're the outcast...
G-------------------------------------------------------
D-------------------------------------------------------
A-2-2--0-2-2-2-5-5--5-0-0--0-2-2--0-2-2-2-5-5--5-0-0--0-  
E------------------------------------------------------- x2

Chorus/Solo

G----------------------------------------------
D----------------------------------------------
A-2-2--2-2-2-5--5--5-5-5-----------------------
E------------------------3--3-3-2-1-0--0-0-0-0-

Very good, easy song. 


So much is here 
We don't ever see
We are all content to live
 In fear of
All that is close and all that is near.


Acordes para guitarra
x

Todo acerca de Oasis