Acordes para guitarra

Indice Oasis

guitartabs





Intro: No Bass

Verse:
  
  My Your Smile... (My Your Smile)... Shine On... (Shine On)...

G|--------------------------------------------------------------|
D|--------------------------------------------------------------|
A|------------14------------------------------14----------------|
E|--------------------------------------------------------------|

  Don't Be Scared.(Don't Be Scared).Your Destiny Will Keep You Warm. 
  
G|--------------------------------------------------------------|
D|--------------------------------------------------------------|
A|--------------7--------------------------------------10-------|
E|--------------------------------------------------------------|

Chorus:

  Cos All For The Stars Are Fading Away 

G|--------------------------------------------------------------|
D|--------------------------------------------------------------|
A|------------------5-----------5-//-12-------------------------|
E|--------------------------------------------------------------|

 Just Try Not To Worry you'll See The Some Day

G|--------------------------------------------------------------|
D|--------------------------------------------------------------|
A|------------------7------------------7-//-10------------------|
E|--------------------------------------------------------------|

 Take What You Need And Be On Your Way 

G|--------------------------------------------------------------|
D|--------------------------------------------------------------|
A|---------------5-------5-----//------7------------------------|
E|--------------------------------------------------------------|

 And Stop Crying Your Heart Out

G|--------------------------------------------------------------|
D|--------------------------------------------------------------|
A|------------------------------10-10-10-10-10-10-10-10-10-10---|
E|--------------------------------------------------------------|

Verse2:
                 
  Get ~~ Up........   (Get ~~~~ Up)... Come ~~ On........   (Come ~ On)...

G|----------------------------------------------------------------------------|
D|----------------------------------------------------------------------------|
A|--------1414-12h1414-1414-12h1414---------------1212-10h1212-1212-10h1212---|
E|----------------------------------------------------------------------------|

  Why You Scared (I'm Not Scared) Your never change whats Be And Gone. 
  
G|----------------------------------------------------------------------------|
D|----------------------------------------------------------------------------|
A|-------------7-7-5h7-7------7-7-5h7-7---------10-10-9h1010-----10-10-9h1010-|
E|----------------------------------------------------------------------------|

Chorus: Same As Last

Insturmental:

G|--------------------------------------------------------------|
D|--------------------------------------------------------------|
A|-------------5--5-5-55--------5-//-12--12-12-1212-------------|
E|--------------------------------------------------------------|


G|--------------------------------------------------------------|
D|---------------------------------------------------14-12------|
A|-------------7--7-7-77--------7-//-10--10-10-1010--------14-12|
E|--------------------------------------------------------------|


G|--------------------------------------------------------------|
D|--------------------------------------------------------------|
A|--10-9-----7----5--5-5-55-------5-//-7--7-7-77----------------|
E|--------------------------------------------------------------|


G|--------------------------------------------------------------|
D|--------------------------------------------------------------|
A|-------------------------------|
E|--------------------------------------------------------------|

  Cos All For The Stars Are Fading Away 

G|--------------------------------------------------------------|
D|--------------------------------------------------------------|
A|------------------5--5-5-55---5-//-12--12-12-1212-------------|
E|--------------------------------------------------------------|

 Just Try Not To Worry you'll See The Some Day

G|--------------------------------------------------------------|
D|--------------------------------------------------------------|
A|------------------7--7-7-77----------7-//-10--10-10-1010------|
E|--------------------------------------------------------------|

 Take What You Need And Be On Your Way 

G|--------------------------------------------------------------|
D|--------------------------------------------------------------|
A|---------------5--5-5-55----//------7--7-7-77-----------------|
E|--------------------------------------------------------------|

 And Stop Crying Your Heart Out

G|--------------------------------------------------------------|
D|-----------------------------------------------14-12----------|
A|-------------------------------10--10-10-1010-------14-12-10-9|
E|--------------------------------------------------------------|

  Well All For The Stars Are Fading Away 

G|--------------------------------------------------------------|
D|--------------------------------------------------------------|
A|---7---5----------5--5-5-55---5-//-12--12-12-1212-------------|
E|--------------------------------------------------------------|

 Just Try Not To Worry you'll See The Some Day

G|--------------------------------------------------------------|
D|--------------------------------------------------------------|
A|------------------7--7-7-77----------7-//-10--10-10-1010------|
E|--------------------------------------------------------------|

 Take What You Need And Be On Your Way 

G|--------------------------------------------------------------|
D|--------------------------------------------------------------|
A|---------------5--5-5-55----//------7--7-7-77-----------------|
E|--------------------------------------------------------------|

 And Stop Crying Your Heart Out

G|--------------------------------------------------------------|
D|--------------------------------------------------------------|
A|-----------------------7-7-7--9-10--10-10-1010----------------|
E|--------------------------------------------------------------|

 And Stop Crying Your Heart Out

G|--------------------------------------------------------------|
D|--------------------------------------------------------------|
A|-----------------------7-7-7--9-10--10-10-1010----------------|
E|--------------------------------------------------------------|

 And Stop Crying Your Heart Out

G|--------------------------------------------------------------|
D|--------------------------------------------------------------|
A|-----------------------7-7-7--9-10--10-10-1010----------------|
E|--------------------------------------------------------------|

 And Stop Crying Your Heart Out

G|--------------------------------------------------------------|
D|-----------------------------------------------14-12----------|
A|----------------------7-7-7--9-10--10-10-1010-------14-12-10-9|
E|--------------------------------------------------------------|

G|--------------------------------------------------------------|
D|--------------------------------------------------------------|
A|-----------------------7-7-7--9-10--10-10-1010----------------|X4
E|--------------------------------------------------------------|
Acordes para guitarra
x

Todo acerca de Oasis