Acordes para guitarra

Indice Oasis

guitartabs





FTH80:G D A E ; Generated by Fast Tab, do not erase
====================
Artist          : Oasis
Song            : Step out (track 2 on Don't look back in anger single)    
Bass Performance: Paul McGuigan
Comments        : Listen to the song for the rhythm. 
		  Don't get fooled by the pounding bass drum. Mainly stick to 
		  the root notes of each guitar chord played. Good luck!  


Strings: E ,A ,D ,G 

Symbols explanations:
  H: hammer on  P: pull off
  +: slap       .: pop
  \: slide up   /: slide down
  --x~~x~~x: triplets
====================

Song structure:

Intro
Verse
Pre-chorus
Chorus
Verse 
Pre-chorus
Chorus
Bridge
Solo
Chorus till end


Intro
------
|  						D	    B5 C5	
G -------------|------------|----------------|------------------------|
D ---------No Bass for------|----------------|------------------------|
A -----------3 bars---------|-----------5\12-|--5--5--5--5--2--3--3--3|
E -------------|------------|----------------|------------------------|
					/\
					||
					(Not sure, could be slide to 17th fret)                                      

|   B5	  C5 B5	  C5		D	
G ------------------|------------------|-------------------------------------------
D ------------------|------------------|-------- Repeat 1x without slide ----------
A --2--2--3--2--2--3|--2--3--5--5--5--5|-------------------------------------------
E ------------------|------------------|-------------------------------------------

Verse
------
|   What she said.......           			
G --------------|------------|---------------------------|----------------------------
D --------------|------------|---------------------------|------- Repeat 1x ----------
A -2--3--5--5--5|--2--3--3--3|--2--3--2--3--2--3--5--5--5|----------------------------
E --------------|------------|---------------------------|----------------------------

Pre - Chorus
-------------
| 	    I met her down....	  	Burning down the road... 	
G ---------|------------|------------|----------------------|---------------------|
D ---------|------------|------------|----------------------|---------------------|
A --5------|------------|------------|--3--3--3--3----------|-3--3--3--3----------|
E -----8--7|--5--5--5--5|--5--5--5--5|--------------3--3--3-|-------------3--3--3-|

|   				She needs to lighten her load                       
G -------------|--------------|-------------|---------------------------------------
D -------------|--------------|-------------|---------------------------------------
A -------------|--------------|-------------|---------------------------------------
E --5--5--5--5-|-5--5--5--5--3|--0--0--0--0-|--2--3--3--3--3------------------------

Chorus
-------
|  When you might.....                                      
G ------------|----------|------------|---------------------------------------------
D ------------|----------|------------|------ Repeat 3 times -----------------------
A --5--5--5--5|--7--7--7-|------------|---------------------------------------------
E ------------|----------|-8--8--8--8-|---------------------------------------------

Bridge
------
|  My whole life still sinking........ 
G ----------------|------------------|----------------------- |----------------------|
D ----------------|------------------|----------------------- |----------------------|
A ----------------|------------------|-5--5--5--5--5--5--5--5-|--3--3--3--3--3--3--3-|
E --0\-3--3--3--3-|-3--3--3--3--3--3-|----------------------- |----------------------|

|   
G ----------------|------------|------------|-----
D ----------------|------------|------------|-----
A ----------------|------------|------------|-----
E ---5--5--5--5---|-5--5--5--5-|-5--5--5--5-|-5--5

Solo									
-----								1.	
|   							 |-----------  	           								 |
G ----------|-----------------|--------------|-----------|------------|------------
D ----------|-----------------|--------------|-----------|------------|--Repeat 1x-
A -5--5--5--|-2--3--3--3--2--3|--2--3--2--3--|--5--5--5--|--2--3--5---|------------
E ----------|-----------------|--------------|-----------|------------|------------


|              			
G ----------|-----------------|-------------------|-------------------|-------------|
D ----------|-----------------|-------------------|-------------------|-------------|
A -5--3--2--|-----------------|-------------0--3--|--5--5--5--5--0--3-|--5--5--5--5-|
E ----------|--3--3--3--0--2--|--3--3--3--3-------|-------------------|-------------|


|   
G ----------------|------------|------------|
D ----------------|------------|------------|
A --3--3--3--3----|------------|------------|
E ----------------|-5--5--5--5-|-5--5--5--5-|


Chorus till end
------
Acordes para guitarra
x

Todo acerca de Oasis