Acordes para guitarra

Indice Oasis

guitartabs





  From: Derrick Butler
  To: guitartabs.cc
  Tab subject: Slide Away by Oasis

  Slide Away written by Noel Gallagher performed by Oasis. Song can be
  found on the album "Definitely Maybe"(Sony Music Publishing) and on
  the single "whatever"

  Tab key:

  b = bend (7b9 means bend string at the 7th fret to make the note the
  9th fret would play without a bend)
  r = release bend
  h = hammer on
  p = pull off
  s = slide

  Chords Used:
         EADGBe
  Am7	(x02013)
  C     (X32013)
  D7    (XX0212)   [NOTE: During chorus this variates to D7sus4(xx0213) and back again]
  E     (022100)
  Fmaj7 (x33210)
  F     (x33211)
  G     (320003)
  G7    (320001)

  Intro:  There are two guitars playing in the intro, guitar1 and guitar2.
          Guitar1 plays the little solos and the main solo. Guitar2 plays
          the chords after the intro.

                                           *strum this slowly
                                              and backwards
  Guitar1|   Guitar2                                *
  e------|------------3-0-----3------------0--------3-0-----3------------0-----|
  B------|----------1-----1-0---0--------1----------1---1-0---0--------1-------|
  G-5h7--|--------0----------------0---0------------0------------0---0---------|
  D------|------2--------------------3------------2----------------3-----------|
  A------|----0---------------------------------0------------------------------|
  E------|---------------------------------------------------------------------|
    Am7        G   Fmaj7      Am7     G     Fmaj7
  e------------------------------------------------------------------------------|
  B------------------------------------------------------------------------------|
  G-7b9----9r7-5--------------5--------------------------------------------------|
  D--------------7-------5h7----7--------7---------------------------------------|
  A-------------------5h7------------6b7----0------------------------------------|
  E------------------------------------------------------------------------------|

  Verse 1:
  --------
  Am7              G                  Fmaj7
  Slide away,  and give it all you've got
  Am7         G                Fmaj7
  My today,   fell in from the top
    Am7                 G                  Fmaj7
  I dream of you,   and all the things you say
  Am7                            G    Fmaj7
     I wonder where you are now

  Verse 2
  -------
  Am7            G                  Fmaj7
  Hold me down,  all the world's asleep
    Am7                G                Fmaj7
  I need you now,  you knock me off my feet
    Am7                   G               Fmaj7
  I dream of you,  and we talk of growing old
  Am7                           G    Fmaj7
     But you said please don't

  Pre-Chorus
  ----------
  G        F
  Slide in Baby
     G            F
  Together we'll fly
  G         F
  I tried praying
        G                               G7
  But I Don't know what you're sayin to me

  Chorus
  ------
                   C                 G
  Now that you're mine, we'll find a way
                 Fmaj7
  Of chasing the sun
                Am7                   G
  Let me be the one, that shines with you
          D7                            Fmaj7
  In the morning, we don't know what to do
            C                 G
  Two of a kind, we'll find a way
                   Fmaj7
  To do what we've done
                Am7                   G
  Let me be the one, that shines with you
                    *D7
  And we can slide away

        *Play this fill over any D7 with a * beside it
        e-----------------|
        B-----------------|
        G-7b9-9r7-5-------|
        D-----------7-----|
        A-----------------|
        E-----------------|

         *D7       Fmaj7
  Slide away
         *D7       Fmaj7
  Slide away
    G     E
  Awaaaayyyyyyy

  Guitar solo
  -----------

  e--------------5---------------------------8-8h10p8----------------------------------|
  B----------------5---------------------8h10---------10-8-8h10------------------------|
  G-7b9------r7------7-5--5-5h7-5--------------------------------7b9-9r7-5-5-5h7-5-----|
  D-------------------------------5h7----------------------------------------------5h7-|
  A------------------------------------------------------------------------------------|
  E------------------------------------------------------------------------------------|

  e------------------------------------------------------------------------------------|
  B------------------------------------------------------------------------------------|
  G---------------19b21---21r19-17---------------17-19p17--19b21-19b21-21r19-17--------|
  D-----7--------------------------19-------17h19-------------------------------19-----|
  A-6b7---0----------------------------17h19-------------------------------------------|
  E------------------------------------------------------------------------------------|

  e------------------------------------------------------------------------------------|
  B------------------------------------------------------------------------------------|
  G------------------------------------------------------------------------------------|
  D-------17-17------------------------------------------------------------------------|
  A-17h19-------19-17-15---------------------------------------------------------------|
  E----------------------17-15h17------------------------------------------------------|
                                 *Hold this note until second chord progression
                                  then slide out
  Verse 3:
  --------
  Am7              G                  Fmaj7
  Slide away,  and give it all you've got
  Am7         G                Fmaj7
  My today,   fell in from the top
    Am7                 G                  Fmaj7
  I dream of you,   and all the things you say
  Am7                            G    Fmaj7
     I wonder where you are now

    Pre-Chorus
    ----------
    G        F
    Slide in Baby
       G            F
    Together we'll fly
    G         F
    I tried praying
            G                            G7
    And I know just what you're sayin to me

    Chorus
    ------
                     C                 G
    Now that you're mine, we'll find a way
                   Fmaj7
    Of chasing the sun
                 *Am7                   G
    Let me be the one, that shines with you
                                             * Here when he sings "one"
                                               Start playing this
                                            e--------------------------|
                                            B--------------------------|
                                            G--------------------------|
                                            D-5h7--7-9--9-10--10-12-/--|
                                            A--------------------------|
                                            E--------------------------|

          D7                            Fmaj7
  In the morning, we don't know what to do
                  C                 G
  We're two of a kind, we'll find a way
                   Fmaj7
  To do what we've done
                Am7                   G
  Let me be the one, that shines with you
                    *D7       Fmaj7
  And we can slide away
         *D7       Fmaj7
  Slide away
         *D7       Fmaj7
  Slide away
         *D7       Fmaj7
  Slide away
         *D7       Fmaj7
  Slide away

  Repeat a few more times then Noel improvises with notes on the A minor
  Pentatonic to fade. Liam sings "Slide Away" a few more times and then I
  think Noel sings "Don't know, Don't know, all I know is you can take me
  There" while Liam is still singing "Slide Away".

  And that's it.
Acordes para guitarra
x

Todo acerca de Oasis