Acordes para guitarra

Indice Oasis

guitartabs





This is just the melody but Ive added the chorus now

Verse

e|---------------------------9----------------------------------------------|
B|----------------------12------12--9---------------------------------------|
G|-13--13-11-9--9-11-13---13-----------11--9--9-11-13-13-13b15r13-11-9-9-11-|
D|--------------------------------------------------------------------------|
A|--------------------------------------------------------------------------|
E|--------------------------------------------------------------------------|

e|-------------|
B|-------------|
G|-11b13r11-9--|
D|-------------|
A|-------------|
E|-------------|

Chorus

-------------16--14--12--------------12------12--------------14--12----------|
-14-12-14----------------14--12--14------14------14--12--14----------12/10---|
-----------------------------------------------------------------------------|
-----------------------------------------------------------------------------|
-----------------------------------------------------------------------------|
-----------------------------------------------------------------------------|


-------------16--14--12--------------12------12--------------14--12----------|
-14-12-14----------------14--12--14------14-----14--12--14-----------14-12---|
-----------------------------------------------------------------------------|
-----------------------------------------------------------------------------|
-----------------------------------------------------------------------------|
-----------------------------------------------------------------------------|


----12----------12----------12----------12----------12----------12--12-14----|
-14----14-12-14----14-12-14----14-12-14----14-12-14----14-12-14--------------|
-----------------------------------------------------------------------------|
-----------------------------------------------------------------------------|
-----------------------------------------------------------------------------|
-----------------------------------------------------------------------------|


-14-12-14-14-14b15b14-12-14----12-----------------|
----------------------------14--------------------|
--------------------------------------------------|
--------------------------------------------------|

This is the whole song as its sung. the solo is basically the same as the verse as iv 
Acordes para guitarra
x

Todo acerca de Oasis