Acordes para guitarra

Indice Oasis

guitartabs





Bass Tab: She's Electric 
  Artist: Oasis 
  Author: Rattman 
Intro (fast): 

G--------------- 
D--------------- 
A--------------- 
E-0-0-0-0-0-0-0- 

Intro 2 and Verse and Guitar Solos: 
 "She's..."                   "She's..."          "And.." 
G------------------------------------------------------------- 
D------------------------------------------------------------- 
A---------3-3-----------------3-3-----------------3-3--------- 
E-0-0-4-4-----5-5-5-5-0-0-4-4-----5-5-5-5-0-0-4-4-----5-5-5-5- 

  "Need" "More" Time" 
G-------------------- 
D-------------------- 
A-------------------- 
E-3-------2------0--- 

Pre-Chorus: 
  "And I want..." 
G-------------------- 
D-------------------- 
A-------------------- 
E-5-5-5-5-5-4-4-4-4-4 

Chorus: 
 "And I'll be..." 
G-------------------- 
D-------------------- 
A-------------------- 
E-0-0-0-0-0-0-0-0-0-0 

"She's Electric..." 
G-------------------- 
D-------------------- 
A-------------------- 
E-2-2-2-2-2-2-2-2-2-2 

"..too" 

G---- 
D---- 
A---- 
E-0- 
  
  
  

Intro(x?) 

Verse (x3) 

Prechorus (x1) 

Chorus (x1) 

ect... 

end on Open E
Acordes para guitarra
x

Todo acerca de Oasis