Acordes para guitarra

Indice Oasis

guitartabs





---------------------------------------0-------------------------------------|
-------0------------0------------0-------0---0-----------0-----------0-------|
-----2---2--------2---2--------2---2-------2---2-------7---7-------7---7-----|
---1-------1----1-------1----1-------1-----------1---6-------6---6-------6---|
-2------------2------------2-----------------------7-----------7-------------|
-----------------------------------------------------------------------------|


---------------------------|
-------0-----------0-------|
-----2---2-------2---2-----|
---1-------1---1-------1---|
-2-----------2-------------|
---------------------------|

Acordes para guitarra
x

Todo acerca de Oasis