Acordes para guitarra

Indice Oasis

guitartabs





Oasis - Better Man - Heathen Chemistry_2002
By Dan Fuller

This song is full of lead guitar parts played in the background, so its best to listen to it and work them 
i've included the riff thats repeated throughout, just listen to see where it fits in.


Intro riff - This riff is played right at the start (bend and hold, then strike again and release, the / 
slide down)

-----5---5---5---5-------------|
-----7b--7r--7b--7r--5--5/-----|
-----7b--7r--7b--7r--5--5/-----|
-------------------------------|
-------------------------------|
-------------------------------|

This can be heard at points throught the song verses:

----------------|
--------10-8----|
----7h9---------|
----------------|
----------------|
----------------|


[Intro riff]

F#m
I wanna love you
                    A
I wanna be a better man
F#m
I don't want to hurt you
                                 A
I just want to see whats in your hands


         F#m
Well alright now
    A
Yea yea
         F#m
Well alright now
    A
Yea yea


B      A                         F#m
ahhhhhhhh then i'll know u understand
B      A                         F#m
ahhhhhhhh then i'll know u understand

[Intro riff]

Then repeat this entire part again.


Acordes para guitarra
x

Todo acerca de Oasis