Acordes para guitarra

Indice Oasis

guitartabs





Oasis - Roll With It
Tabbed By: Jensen  Pilkngton
 Intro
     D7    C7   G              D7   C7   A

Verse                    (    First Time      )  (  Second Time  )
    G    G    G    G     C  Em  Am    G          C  Em  Am   C  Em

  Am   C  Em D    G    G
--0000-00-00-2222-3333-3333----
--1111-11-00-3333-0000-0000----
--2222-00-00-2222-0000-0000----
--2222-22-22-0000-0000-0000----
--0000-33-22------2222-2222----
-------00-00------3333-3333----

 Play First Time without Second Time at start of verse ("coz it's all too much
for me to take" are the lyrics). On the repeat just play Second Time and go 
straight into next line of tabs (while "I think I've got a feeling I'm lost 
inside" is sung)

 Middle
   F    F    G    G           F    F    C    D  D/C       D
-1111-1111-3333-3333------1111-1111-0000-22-00--------2222----
-1111-1111-0000-0000------1111-1111-1111-33-33--------3333----
-2222-2222-0000-0000----.-2222-2222-0000-22-00--------2222----
-3333-3333-0000-0000-X3-.-3333-3333-2222-00-22--------0000----
-----------2222-2222----------------3333----33--2-0-----------
-----------3333-3333------------------------00------3---------

  
 Now Repeat Verse (over solo), middle and verse again then this till the end.
                                                                        
 --00-00-0000---
 --11-00-1111---
 .-00-00-2222--.
 .-22-22-2222--.
 --33-22-0000---
Acordes para guitarra
x

Todo acerca de Oasis