Acordes para guitarra

Indice Oasis

guitartabs





Tabbed By : Dany

Tuning:
intro and verses pretty the same 

G|--------------------------------------------------------------
D|--------------------------------------------------------------  
A|----------------5-5-5--3-4-3---------------5-5-5--3-4-3-------  x5
E|----0 0 0--2-3-----------------0 0 0--2-3---------------------


then


G|---------------------------------------------------------------------------
D|---------------------------------------------------------------------------
A|-------------5-5-5--3-4-3- 0-0-0-0- 2 3 3 3 2-0-2 0-----------5-5-5--3-4-3-
E|-0-0-0--2-3-----------------------------------------0-0-0--2-3-------------

Pre-chorus
G|-----------------------------------------
D|-----------------------------------------
A|--5-5-5-5-5-5-3-3-3-3-2 3----------------
E|-----------------------------------------

after its 
G|---------------------------------------------------------------------------
D|---------------------------------------------------------------------------
A|-5-5-5-5-5-5-55-52-2-2-2-2-2-2-2-2-2-2-2-2---------------------------------
E|---------------------------------------------------------------------------

Acordes para guitarra
x

Todo acerca de Oasis