Acordes para guitarra

Indice Oasis

guitartabs





intro / outro
g---------------------------------------------------------------------|
d---------------------------------------------------------------------|
a-------------------------------5------------5-----------------7------|
e----5-5-5-4-4-4-3-3-3-2-2-2-111 all of that x2 for the outro to
   verses
g----------------------------------------------------------------------|
d----------------------------------------------------------------------|
a---------7-5-----3-3-3-3-----7-7-7-7----------------------------------|
e-555-5-551------------------------------------------------------------|
bridge
g----------------------------------------------------------------------|
d----------------------------------------------------------------------|
a--33--------------------------3-3---------------3 3-------------------|
chorus
g----------------------------------------------------------------------|
d----------------------------------------------------------------------|
a----------------------------------7-----------------------------------|
Acordes para guitarra
x

Todo acerca de Oasis