Acordes para guitarra

Indice Oasis

guitartabs





Title: Lyla
Artist: Oasis
Tabbed by:Darian
Tuning:Standard(EADGBe) with capo on 3rd fret for both guitars
Everything is relative to capo

Guitar 1: Acoustic
Guitar 2: Slight Distortion Electric

Intro X1

Guitar 1
e|-0-3-0-0--0--0--0--0--0--0--|
B|-2-2-2-2--2--2--2--2--2--2--|
G|-2-3-2-2--2--2--2--2--2--2--|
D|-2-0-2-2--2--2--2--2--2--2--|X4
A|-0---0-0--0--0--0--0--0--0--|
E|----------------------------|

Guitar 2
(comes in after 2 times)
e|----------------------------|
B|----------------------------|
G|---7------------------------|
D|-7-7-7-7--7--7--7--7--7--7--|X2
A|-7-5-7-7--7--7--7--7--7--7--|
E|-5---5-5--5--5--5--5--5--5--|

Bridge X1

Guitar 1
e|-0-3--|
B|-2-2--|
G|-2-3--|
D|-2-0--|
A|-0----|
E|------|

Guitar 2
e|------|
B|------|
G|---7--|
D|-7-7--|
A|-7-5--|
E|-5----|

Verse X4

Guitar 1
e|-0--0--0--0--0--0--0--0--3--3--3--3--3--3--3--3--|
B|-1--1--1--1--1--1--1--1--3--3--3--3--2--2--2--2--|
G|-2--2--2--2--2--2--2--2--0--0--0--0--3--3--3--3--|
D|-3--3--3--3--3--3--3--3--0--0--0--0--0--0--0--0--|
A|-------------------------2--2--2--2--------------|
E|-------------------------3--3--3--3--------------|

Guitar 2
e|-------------------------------------------------|
B|-------------------------------------------------|
G|-10-10-10-10-10-10-10-10-------------7--7--7--7--|
D|-10-10-10-10-10-10-10-10-5--5--5--5--7--7--7--7--|
A|-8--8--8--8--8--8--8--8--5--5--5--5--5--5--5--5--|
E|-------------------------3--3--3--3--------------|

Guitar 1
e|-0--0--0--0--0--0--0--0--|
B|-2--2--2--2--2--2--2--2--|
G|-2--2--2--2--2--2--2--2--|
D|-2--2--2--2--2--2--2--2--|
A|-0--0--0--0--0--0--0--0--|
E|-------------------------|

Guitar 2
e|-------------------------|
B|-------------------------|
G|-------------------------|
D|-7--7--7--7--7--7--7--7--|
A|-7--7--7--7--7--7--7--7--|
E|-5--5--5--5--5--5--5--5--|

Pre-Chorus X2 

Guitar 1
e|-3-0-0-0--3-0-0-0---|
B|-2-2-2-2--2-2-2-2---|
G|-3-2-2-2--3-2-2-2---|
D|-0-2-2-2--0-2-2-2---|
A|---0-0-0----0-0-0---|
E|--------------------|

Guitar 2
e|--------------------|
B|--------------------|
G|-7--------7---------|
D|-7-7-7-7--7-7-7-7---|
A|-5-7-7-7--5-7-7-7---|
E|---5-5-5----5-5-5---|

Chorus X1

Guitar 1
e|-0--0--0--0--0-2-0-0--0--0--0--3--3--3--3--3--3--3--3--|
B|-2--2--2--2--2-2-2-2--2--2--2--3--3--3--3--2--2--2--2--|
G|-2--2--2--2--2-3-2-2--2--2--2--0--0--0--0--3--3--3--3--|
D|-2--2--2--2--2-0-2-2--2--2--2--0--0--0--0--0--0--0--0--|X4
A|-0--0--0--0--0---0-0--0--0--0--2--2--2--2--------------|
E|-------------------------------3--3--3--3--------------|

Guitar 2
e|-------------------------------------------------------|
B|-------------------------------------------------------|
G|---------------7---------------------------7--7--7--7--|
D|-7--7--7--7--7-7-7-7--7--7--7--5--5--5--5--7--7--7--7--|X4
A|-7--7--7--7--7-5-7-7--7--7--7--5--5--5--5--5--5--5--5--|
E|-5--5--5--5--5---5-5--5--5--5--3--3--3--3--------------|

Guitar 1
e|-------------------------|
B|-0~----------------------|
G|-1~----------------------|
D|-2~----------------------|
A|-2~----------------------|
E|-0~----------------------|

Guitar 2
e|-------------------------|
B|-------------------------|
G|-------------------------|
D|-2~-------2--2--2--2--2--|
A|-2~-------2--2--2--2--2--|
E|-0~-------0--0--0--0--0--|

Interlude X1

Guitar 1
e|-0--0--0--0--0--2--2-0-0--0--0--0--0--0--0--3-0-0--|
B|-2--2--2--2--2--2--2-2-2--2--2--2--2--2--2--2-2-2--|
G|-2--2--2--2--2--2--3-2-2--2--2--2--2--2--2--3-2-2--|
D|-2--2--2--2--2--2--0-2-2--2--2--2--2--2--2--0-2-2--|
A|-0--0--0--0--0--0----0-0--0--0--0--0--0--0----0-0--|
E|---------------------------------------------------|

Guitar 2
e|---------------------------------------------------|
B|-10-10-10-10-10-10-10-10--10-10-10-10-10-10-10-10--|
G|---------------------------------------------------|
D|---------------------------------------------------|
A|---------------------------------------------------|
E|---------------------------------------------------|

Verse X4

Guitar 1
e|-0--0--0--0--0--0--0--0--3--3--3--3--3--3--3--3--|
B|-1--1--1--1--1--1--1--1--3--3--3--3--2--2--2--2--|
G|-2--2--2--2--2--2--2--2--0--0--0--0--3--3--3--3--|
D|-3--3--3--3--3--3--3--3--0--0--0--0--0--0--0--0--|
A|-------------------------2--2--2--2--------------|
E|-------------------------3--3--3--3--------------|

Guitar 2
e|-------------------------------------------------|
B|-------------------------------------------------|
G|-10-10-10-10-10-10-10-10-------------7--7--7--7--|
D|-10-10-10-10-10-10-10-10-5--5--5--5--7--7--7--7--|
A|-8--8--8--8--8--8--8--8--5--5--5--5--5--5--5--5--|
E|-------------------------3--3--3--3--------------|

Guitar 1
e|-0--0--0--0--0--0--0--0--|
B|-2--2--2--2--2--2--2--2--|
G|-2--2--2--2--2--2--2--2--|
D|-2--2--2--2--2--2--2--2--|
A|-0--0--0--0--0--0--0--0--|
E|-------------------------|

Guitar 2
e|-------------------------|
B|-------------------------|
G|-------------------------|
D|-7--7--7--7--7--7--7--7--|
A|-7--7--7--7--7--7--7--7--|
E|-5--5--5--5--5--5--5--5--|

Pre-Chorus X2 

Guitar 1
e|-3-0-0-0--3-0-0-0---|
B|-2-2-2-2--2-2-2-2---|
G|-3-2-2-2--3-2-2-2---|
D|-0-2-2-2--0-2-2-2---|
A|---0-0-0----0-0-0---|
E|--------------------|

Guitar 2
e|--------------------|
B|--------------------|
G|-7--------7---------|
D|-7-7-7-7--7-7-7-7---|
A|-5-7-7-7--5-7-7-7---|
E|---5-5-5----5-5-5---|

Chorus X1

Guitar 1
e|-0--0--0--0--0-2-0-0--0--0--0--3--3--3--3--3--3--3--3--|
B|-2--2--2--2--2-2-2-2--2--2--2--3--3--3--3--2--2--2--2--|
G|-2--2--2--2--2-3-2-2--2--2--2--0--0--0--0--3--3--3--3--|
D|-2--2--2--2--2-0-2-2--2--2--2--0--0--0--0--0--0--0--0--|X4
A|-0--0--0--0--0---0-0--0--0--0--2--2--2--2--------------|
E|-------------------------------3--3--3--3--------------|

Guitar 2
e|-------------------------------------------------------|
B|-------------------------------------------------------|
G|---------------7---------------------------7--7--7--7--|
D|-7--7--7--7--7-7-7-7--7--7--7--5--5--5--5--7--7--7--7--|X4
A|-7--7--7--7--7-5-7-7--7--7--7--5--5--5--5--5--5--5--5--|
E|-5--5--5--5--5---5-5--5--5--5--3--3--3--3--------------|

Solo X1

Guitar 1
e|-0-0-0-0-0-0-2-3-3-3-3-3--0-0-0-0-0-0-0-3-3-3-3-3--0-0-0-0-0-0-0-0-0-0-0-0|
B|-2-2-2-2-2-2-2-3-3-3-3-3--2-2-2-2-2-2-2-3-3-3-3-3--2-2-2-2-2-2-2-2-2-2-2-2|
G|-2-2-2-2-2-2-2-0-0-0-0-0--2-2-2-2-2-2-2-0-0-0-0-0--2-2-2-2-2-2-2-2-2-2-2-2|
D|-2-2-2-2-2-2-2-0-0-0-0-0--2-2-2-2-2-2-2-0-0-0-0-0--2-2-2-2-2-2-2-2-2-2-2-2|
A|-0-0-0-0-0-0-0-2-2-2-2-2--0-0-0-0-0-0-0-2-2-2-2-2--0-0-0-0-0-0-0-0-0-0-0-0|
E|---------------3-3-3-3-3----------------3-3-3-3-3-------------------------|

Guitar 2
e|-----------------------------------------------------------17---17--17--17|
B|---------------17b--17~~-----------------------17b-17b--17b---17b-17b-17b-|
G|---------------------------------2b--2~~----------------------------------|
D|-2-13s0-------------------13s0----------13s0------------------------------|
A|-2-------11s0-------------------------------------------------------------|
E|-0------------------------------------------------------------------------|

Chorus X1

Guitar 1
e|-0--0--0--0--0-2-0-0--0--0--0--3--3--3--3--3--3--3--3--|
B|-2--2--2--2--2-2-2-2--2--2--2--3--3--3--3--2--2--2--2--|
G|-2--2--2--2--2-3-2-2--2--2--2--0--0--0--0--3--3--3--3--|
D|-2--2--2--2--2-0-2-2--2--2--2--0--0--0--0--0--0--0--0--|X8
A|-0--0--0--0--0---0-0--0--0--0--2--2--2--2--------------|
E|-------------------------------3--3--3--3--------------|

Guitar 2
e|-------------------------------------------------------|
B|-------------------------------------------------------|
G|---------------7---------------------------7--7--7--7--|
D|-7--7--7--7--7-7-7-7--7--7--7--5--5--5--5--7--7--7--7--|X8
A|-7--7--7--7--7-5-7-7--7--7--7--5--5--5--5--5--5--5--5--|
E|-5--5--5--5--5---5-5--5--5--5--3--3--3--3--------------|

Song ends when the chorus fades out.

| /  slide up
| \  slide down
| h  hammer-on
| p  pull-off
| ~  vibrato
|(5) harmonic
| X  mute note
| b  bend note
| PM palm mute
Acordes para guitarra
x

Todo acerca de Oasis