Acordes para guitarra

Indice Oasis

guitartabs





Live Forever- Oasis
Off of Definitely Maybe

This is my first tab, so it might be a little off, but it's my favorite Oasis song, so enjoy!


Verse:

G-------------------------------------------
D-------------------------------------------
A---------------5---5-5---5---0---0-0---0---
E-3---3-3---3-------------------------------

G-----------------
D-----------------
A-3-3-3-3-5-5-5-5-	x2

Chorus:

G--------------------------------------------
D--------------------------------------------
A---------------5---5-5---5---0---0-0---0----
E-0---0-0---0--------------------------------

G--------------------------------------------
D--------------------------------------------
A-3-3-3-3-5-5-5-5----------------5---5-5---5-
E--------------------0---0-0---0-------------

G-----------------------------------
D-----------------------------------
A-0---0-0---0---3-3-3-3-3-3-3-3-3-3-
E-----------------------------------

It starts off with first verse with no bass, then the bass kicks during first chorus. 

Acordes para guitarra
x

Todo acerca de Oasis