Acordes para guitarra

Indice Oasis

guitartabs





I thought i'd put this under 2 names because some people cant be bothered
to type "the" in the search box
 
this is a great song. full stop 
thanks noel and liam for writing this song.

e|-----0-----------8--7-----------3-5-3--------------0---0---0---0--|
B|---3----3-1-----------10--8------------4-----4p0-4---4---5---5----| times 
G|-2-----------2---------------9------------------------------------|   2
D|------------------------------------------------------------------|
A|------------------------------------------------------------------|
E|------------------------------------------------------------------|

e|--------------------------------|
B|---15b17---15b17-15-13----13----|
G|-----------------------14-------|     Times 2
D|--------------------------------|
A|--------------------------------|
E|--------------------------------|

e|-----------15-------------------------------------------------------------|
B|-----15b17----15b17b15-13----12/5--15b17-15b17-15-13---13-----------------|
G|--------------------------14-------------------------14-------------------|
D|--------------------------------------------------------------------------|
A|--------------------------------------------------------------------------|
E|--------------------------------------------------------------------------|

e|---------15---------------------------------------------------------------|
B|--15b17-----15b17b15-13----13---15b17-12/5--------------------------------|
G|------------------------14------------------------------------------------|
D|--------------------------------------------------------------------------|
A|--------------------------------------------------------------------------|
E|--------------------------------------------------------------------------|

there you go
Acordes para guitarra
x

Todo acerca de Oasis