Acordes para guitarra

Indice Oasis

guitartabs





Oasis - The Importance of Being Idle
Good track and nice and easy to play

This bit     D----------------------| I play it although
seems        A--7-5-3-2--7-5-3-2-0--| I don't think it's
to fit       E----------------------| a guitar part
before solo,

SOLO
e-----------------------------------------------------------|
b----------------13-12--------------------------------------|
g----------------------14-12----------12-14-12--------------|
D-12-14-12-------------------14--(14)----------14-13-14/(7)-|
A----------15-12--------------------------------------------|
E-----------------------------------------------------------|

e-----------------------------------------------------------|
b----------------13-12--------------------------------------|
g----------------------14-12----------12-14-12--------------|
D-12-14-12-------------------14--(14)----------14-13-14-----|
A----------15-12--------------------------------------------|
E-----------------------------------------------------------|

                                                           Hold Bend
                                                               |
e-------------------------------------------------------------15----------------|
b--15b17-15b17-15-13----13-15b17-15b17-15-13----13------15b17----17r15-13-12/5--|
g--------------------14----------------------14---------------------------------|
D-------------------------------------------------------------------------------|
A-------------------------------------------------------------------------------|
E-------------------------------------------------------------------------------|

                               Hold Bend
                                   |
e---------------------------------15--------------------------------------------|
b--15b17-15b17-15-13----13--15b17----17r15-13--15b17--13------------------------|
g--------------------14---------------------------------------------------------|
D---------------------------------------------------------14-14-14-14-14-14-14--|
A-------------------------------------------------------------------------------|
Acordes para guitarra
x

Todo acerca de Oasis