Acordes para guitarra

Indice Oasis

guitartabs





Intro
G------------------
D------------------
A---02--02222-2222-
E-02--02-----------

Verse

G---------------------------------
D----------------02442424---------
A--------02202-2---------02202020-
E-220202--------------------------

Chorus

G-------------------------------------------
D-------------------------------------------
A-------------------------------------------
E-02222227777770222222777777022222227777702-


Bridge

G------------------------
D------------2-4-2-------
A-----2-3-4-------4-3-2--
E-2-5------------------5-

Ending

G-----------------------
D------------2-4-2------
A-----2-3-4-------2~----
E-2-5-------------------

Tabbed By Marc Watson
Age 15
Acordes para guitarra
x

Todo acerca de Oasis