Acordes para guitarra

Indice Oasis

guitartabs

var	lcnt		=	71;
chords["Am"]= "x02210";
freds["Am"]= "1";
alts["Am"]= "......";
chords["Dsus2"]= "xx0230";
freds["Dsus2"]= "1";
alts["Dsus2"]= "......";
chords["Fmaj7"]= "1x3210";
freds["Fmaj7"]= "1";
alts["Fmaj7"]= ".3....";
chords["C"]= "x32010";
freds["C"]= "1";
alts["C"]= "3.....";
chords["G"]= "320003";
freds["G"]= "1";
alts["G"]= "......";


Submitter: TheCatInTheHat
Artist: Oasis
Song: Hey Hey, My My (Into The Black)


Chords:


Intro:
e|-------------------0-|    
B|-------------------1-|
G|-------------------2-|
D|---------0---------3-|
A|-0-0-2-3---2-0---0-3-|
E|---------------3---x-|

e|-------------------0-|
B|-------------------1-|
G|-------------------2-|
D|---------0---------3-|
A|-0-0-2-3---2-0---0-3-|
E|---------------3---x-|

e|---------------------|
B|---------------------|
G|---------0-2-2-0-----|
D|-----0-2---------2-3-|
A|-3-3-----------------|
E|---------------------|

e|-------------------0-|
B|-------------------1-|
G|-------------------2-|
D|---------0---------3-|
A|-0-0-2-3---2-0---0-3-|
E|---------------3---x-|


Verse 1:
Hey hey, my my 
rock and roll will never die 
theres more to the picture
than meets the eye 
Hey hey, my my 


e|-------------------0-|
B|-------------------1-|
G|-------------------2-|
D|---------0---------3-|
A|-0-0-2-3---2-0---0-3-|
E|---------------3---x-|


Verse 2:
Get out of the blue and into the black
they give you this but you pay for that 
and when you die
no you cant come back
cos your out of the blue and into the black


e|-------------------0-|
B|-------------------1-|
G|-------------------2-|
D|---------0---------3-|
A|-0-0-2-3---2-0---0-3-|
E|---------------3---x-|


Solo:

e|-------------------0-|
B|-------------------1-|
G|-------------------2-|
D|---------0---------3-|
A|-0-0-2-3---2-0---0-3-|
E|---------------3---x-|


Verse 3:
My my, hey hey 
rock and roll is here to stay 
its better to burn out 
than to fade away 
my my, hey hey


Outro:
e|-------------------0-|
B|-------------------1-|
G|-------------------2-|
D|---------0---------3-|
A|-0-0-2-3---2-0---0-3-|
E|---------------3---x-|
Acordes para guitarra
x

Todo acerca de Oasis