Acordes para guitarra

Indice Oasis

guitartabs





Song: Headshrinker
by Oasis
from the single "Some Might Say"
and the compilation of b-sides "The Masterplan"
tabbed by: Guido Comparato

Verse
G|-----------------------------------------------------------------|
D|-----------------------------------------------------------------|
A|-5-5-5-5-5-5-5-5-5-5-5-5-5-5-5-5-3-3-3-3-3-3-3-3-3-3-3-3-3-3-3-3-|
E|-----------------------------------------------------------------|

G|-----------------------------------------------------------------|
D|-----------------------------------------------------------------|
A|-1-1-1-1-1-1-1-1-----------------5-5-5-5-5-5-5-5-5-5-5-5-5-5-5-5-|
E|-----------------3-3-3-3-1-1-1-1---------------------------------|

Pre-Chorus
G|-----------------------------------------------------------------|
D|-----------------------------------------------------------------|
A|---------------------------------5-5-5-5-5-5-5-5-5-5-5-5-5-5-5-5-|
E|-3-3-3-3-3-3-3-3-1-1-1-1-3-3-3-3---------------------------------|

"I hope you..."
G|-------------------------------------------------|
D|-------------------------------------------------|
A|-----------------0-0-0-0-0-0-0-0-0-0-0-0-0-0-0-0-|
E|-1-1-1-1-1-1-1-1---------------------------------|

Chorus
G|-----------------------------------------------------------------|
D|-----------------------------------------------------------------|
A|-5-5-5-5-5-5-5-5-3-3-3-3-3-3-3-3-----------------1-1-1-1-3-3-3-3-|
E|---------------------------------3-3-3-3-3-3-3-3-----------------|(x3)

G|---------------------------------|
D|---------------------------------|
A|-0-0-0-0-0-0-0-0-0-0-0-0-0-0-0-0-|
E|---------------------------------|

Oasis' Magic Pie Italia - http://listen.to/magicpie
Acordes para guitarra
x

Todo acerca de Oasis