Acordes para guitarra

Indice Oasis

guitartabs





Oasis - Half the World Away

This is an Oasis Classic and was a B side to Whatever.  Noel writes B sides better
than most bands write A sides! This Tab is by no means exact, it's pretty accurate
but not exact, it sounds good with the song. The chords are correct for the strumming
part too, play it with a mate! It's pretty long but i've tabbed the song almost to
the end. I know everyone always says it but this time i'ts true - This is my first

Intro

        C		Fmaj7	      C             Fmaj7 
E-|--------0----------0-----------0----------0-------------|
B-|-----------1-----1----1-----------1-----1----1----------|
G-|------------0----------2-----0-----0----------2---------|
D-|----------------3-3--------------------3-3--------------|
A-|---------------------------3----------------------------|
E-|--------------------------------------------------------|

Verse 1
   I would like to leave this...This old town dont smell too.....
        C	   Fmaj7      C           Fmaj7 
E-|--------0----------0-----------0----------0-------------|
B-|-----------1-----1----1-----------1-----1----1----------|
G-|------0-----0----------2-----0-----0----------2---------|
D-|----------------3-3--------------------3-3--------------|
A-|----3----------------------3----------------------------|
E-|--------------------------------------------------------|

Bridge
    I can feel the warning signs running around my mind.
     C    C/B      Am        D7         Fmaj7
E-|----0----0------0----0----2---2---------0---------------|
B-|-----1----1------1----1-----1---1-----1----1------------|
G-|------0----0-------2---------2---2----------2-----------|
D-|-------------------------------------3-3----------------|
A-|--------------0-----------------------------------------|
E-|--3----2------------------------------------------------|

Verse 2
And when I leave this island I booked myself into a soul asylum
        C	   Fmaj7      C           Fmaj7 
E-|--------0----------0-----------0----------0-------------|
B-|-----------1-----1----1-----------1-----1----1----------|
G-|------0-----0----------2-----0-----0----------2---------|
D-|----------------3-3--------------------3-3--------------|
A-|----3----------------------3----------------------------|
E-|--------------------------------------------------------|

Bridge

    Cause I can feel the warning signs running around my mind.
     C    C/B      Am        D7         Fmaj7
E-|----0----0------0----0----2---2---------0---------------|
B-|-----1----1------1----1-----1---1-----1----1------------|
G-|------0----0-------2---------2---2----------2-----------|
D-|-------------------------------------3-3----------------|
A-|--------------0-----------------------------------------|
E-|--3----2------------------------------------------------|

Chorus

    So here I go. I'm still scratchin around in the same old hole
    Am		  C	      E7          Am
E-|------0------------0-----------0-----------0------------|
B-|---------1------------1-----------0-----------1---------|
G-|----2-----2------0-----2-----1-----1-----2-----2--------|
D-|--------------------------------------------------------|
A-|--0------------3-----------------------0----------------|
E-|---------------------------0----------------------------|

     My body feels young but my mind is very old.
    Fmaj7	 D7	     G		 G7
E-|------0-----------2-----------3-----------1-------------|
B-|---------1-----------1-----------0-----------0----------|
G-|----2-----2-----2-----2-----0-----0-----0-----0---------|
D-|--3-----------0-----------------------------------------|
A-|--------------------------------------------------------|
E-|--------------------------3-----------3-----------------|

    So what do you say. You cant give me the dreams that...
    Am		  C	      E7          Am
E-|------0------------0-----------0-----------0------------|
B-|---------1------------1-----------0-----------1---------|
G-|----2-----2------0-----2-----1-----1-----2-----2--------|
D-|--------------------------------------------------------|
A-|--0------------3-----------------------0----------------|
E-|---------------------------0----------------------------|

   Half the world away  Half the world away
     Am                   Fm
E-|-----0-----0----0---------1----1----1-------------------|
B-|---1----1-----1---1-----1----1----1----1----------------|
G-|--2-2----2-----2---2---1-1----1----1----1---------------|
D-|--------------------------------------------------------|
A-|--------------------------------------------------------|
E-|--------------------------------------------------------|

   Half the world away, I've been lost and been found but......
     C    C/B      Am        D7         Fmaj7
E-|----0----0------0----0----2---2---------0---------------|
B-|-----1----1------1----1-----1---1-----1----1------------|
G-|------0----0-------2---------2---2----------2-----------|
D-|-------------------------------------3-3----------------|
A-|--------------0-----------------------------------------|
E-|--3----2------------------------------------------------|


     Fmaj7
E-|--0----0----0----------0--------------------------------|
B-|-----1----1----1-----1----1-----1-----------------------|
G-|------2----2----2----------2----2-----------------------|
D-|--------------------3-3---------3-----------------------|
A-|--------------------------------------------------------|
E-|--------------------------------------------------------|


        C	   Fmaj7      C           Fmaj7
E-|--------0----------0-----------0----------0-------------|
B-|-----------1-----1----1-----------1-----1----1----------|
G-|------0-----0----------2-----0-----0----------2---------|
D-|----------------3-3--------------------3-3--------------|
A-|----3----------------------3----------------------------|
E-|--------------------------------------------------------|

Verse 3
   And if I could leave this planet,you know i'd stay but I......
        C	   Fmaj7      C           Fmaj7
E-|--------0----------0-----------0----------0-------------|
B-|-----------1-----1----1-----------1-----1----1----------|
G-|------0-----0----------2-----0-----0----------2---------|
D-|----------------3-3--------------------3-3--------------|
A-|----3----------------------3----------------------------|
E-|--------------------------------------------------------|


Bridge
    I can feel the warning signs running around my mind.
     C    C/B      Am        D7         Fmaj7
E-|----0----0------0----0----2---2---------0---------------|
B-|-----1----1------1----1-----1---1-----1----1------------|
G-|------0----0-------2---------2---2----------2-----------|
D-|-------------------------------------3-3----------------|
A-|--------------0-----------------------------------------|
E-|--3----2------------------------------------------------|

Chourus
    So here I go. I'm still scratchin around in the same old hole
    Am		  C	      E7          Am
E-|------0------------0-----------0-----------0------------|
B-|---------1------------1-----------0-----------1---------|
G-|----2-----2------0-----2-----1-----1-----2-----2--------|
D-|--------------------------------------------------------|
A-|--0------------3-----------------------0----------------|
E-|---------------------------0----------------------------|

    My body feels young but my mind is very old.
    Fmaj7	 D7	     G		 G7
E-|------0-----------2-----------3-----------1-------------|
B-|---------1-----------1-----------0-----------0----------|
G-|----2-----2-----2-----2-----0-----0-----0-----0---------|
D-|--3-----------0-----------------------------------------|
A-|--------------------------------------------------------|
E-|--------------------------3-----------3-----------------|

    So what do you say. You cant give me the dreams that...
    Am		  C	      E7          Am
E-|------0------------0-----------0-----------0------------|
B-|---------1------------1-----------0-----------1---------|
G-|----2-----2------0-----2-----1-----1-----2-----2--------|
D-|--------------------------------------------------------|
A-|--0------------3-----------------------0----------------|
E-|---------------------------0----------------------------|

   Half the world away  Half the world away
     Am                   Fm
E-|-----0-----0----0---------1----1----1-------------------|
B-|---1----1-----1---1-----1----1----1----1----------------|
G-|--2-2----2-----2---2---1-1----1----1----1---------------|
D-|--------------------------------------------------------|
A-|--------------------------------------------------------|
E-|--------------------------------------------------------|

   Half the world away, I've been lost and been found but......
     C    C/B      Am        D7         Fmaj7
E-|----0----0------0----0----2---2---------0---------------|
B-|-----1----1------1----1-----1---1-----1----1------------|
G-|------0----0-------2---------2---2----------2-----------|
D-|-------------------------------------3-3----------------|
A-|--------------0-----------------------------------------|
E-|--3----2------------------------------------------------|



     Fmaj7
E-|--0----0----0----------0----0----0----------------------|
B-|-----1----1----1-----1----1----1----1-------------------|
G-|------2----2----2----------2----2----2------------------|
D-|--------------------3-3---------------------------------|
A-|--------------------------------------------------------|
E-|--------------------------------------------------------|

    Fmaj7
E-|------0-----0----0----------0---------------------------|
B-|----1-----1----1----1-----1----1---1--------------------|
G-|-----------2----2----2----------2--2--------------------|
D-|---3-3-------------------3-3-------3--------------------|
A-|--------------------------------------------------------|
E-|--------------------------------------------------------|

Outro

        C	   Fmaj7      C           Fmaj7 
E-|--------0----------0-----------0----------0-------------|
B-|-----------1-----1----1-----------1-----1----1----------|
G-|------0-----0----------2-----0-----0----------2---------|
D-|----------------3-3--------------------3-3--------------|
A-|----3----------------------3----------------------------|
E-|--------------------------------------------------------|

        C	   Fmaj7      C           Fmaj7 
E-|--------0----------0-----------0----------0-------------|
B-|-----------1-----1----1-----------1-----1----1----------|
G-|------0-----0----------2-----0-----0----------2---------|
D-|----------------3-3--------------------3-3--------------|
A-|----3----------------------3----------------------------|
E-|--------------------------------------------------------|

Acordes para guitarra
x

Todo acerca de Oasis