Acordes para guitarra

Indice Oasis

guitartabs





Song: "Fuckin' in the Bushes"
by OASIS
from the album: "Standing on the Shoulder of Giants"
written by: Noel Gallagher

 The same as guitar...

 Main Riff
G|--------------------------|
D|--------------------------|
A|---------------5---5---7--|
E|--0--0-0-3-0-----0---0----|

 "Kids are running around naked, fuckin' in the bushes..."
G|--------------------------|
D|--------------------------|
A|---------------7-0-5-0-7--|
E|--0--0-0-3-0--------------|

Oasis' Magic Pie Italia - http://listen.to/magicpie
Acordes para guitarra
x

Todo acerca de Oasis