Acordes para guitarra

Indice Oasis

guitartabs

var	lcnt		=	87;
chords["E"]= "022100";
freds["E"]= "1";
alts["E"]= "......";
chords["C#m"]= "x13321";
freds["C#m"]= "4";
alts["C#m"]= "1.....";
chords["F#m"]= "244222";
freds["F#m"]= "1";
alts["F#m"]= "......";
chords["A"]= "x02220";
freds["A"]= "1";
alts["A"]= "......";
chords["B"]= "x2444x";
freds["B"]= "1";
alts["B"]= "2....2";


OASIS - ALIVE
NOEL GALLAGHER
Tabbed by Sam Southey

This is one of my favorite Oasis songs due to its simple but f*ckn awesome lead guitar 
and the build up that surounds it at the end. Any way this is the first tab that ive ever 
done but it didn't take me long to work out the lead and add it on.  As this is my first 
tab could be please give it a rating. Untill next time, live forever.....

RIFF FOR INTRO - same as the verse but for the first two times you only play the bit 
between the lines, ie; the 6's, 4's and 0's.
e-----------------------------------------------|-----------0------------------------0-------|----
B----------7-----7----7----------------------|--4----------4------------4-----------4------|---
G-----9------9-----9-----9------------------|-----6----------6------------6-----------6--|---
D--9------------------------9--sld down-|-6------------------6------------------------|-6 sld up 9-



VERSE  -  RIFF 1 (play throughout)

The people will notice that the times are changing

It's just for now but not for good

It's my feelings that I think you're draining

So take them now if you think you should

RIFF 1
e----------------------------------------------------------------0------------------------0----------------------
B----------7-----7----7-----------------------------4----------4------------4-----------4-------------------
G-----9------9-----9-----9----------------------------6----------6------------6-----------------------------
D--9-----------------------------9--sld down--6--------------------6-----------------------6 sld up 9-



CHORUS - RIFF 2 (play throughout)

You want something for nothing 

The higher that you climb, the longer you fall

Maybe your time is coming, will you have to climb when you find the wall

Is there time to doubt, is there time to wait

Will you be left alone at the starting gate?

I'm not blind and I don't mind cause I've got time now, I'm alive

RIFF 2 (play every chord - cept the E's and A's at the end of the chorus) its
easy if you listen
e-------------------------------------
B------5-----------------------------
G----------6----4-------6----------
D------------------------------------


VERSE - RIFF 1

The people have noticed that the times are changing

But are they gonna do something now

I think I've seen you all hesitating

I think I'll go and do something now


CHORUS - RIFF 2 (play throughout)

You want something for nothing 

The higher that you climb, the longer you fall

Maybe your time is coming, will you have to climb when you find the wall

Is there time to doubt, is there time to wait

Will you be left alone at the starting gate?

I'm not blind and I don't mind cause I've got time now, I'm alive

RIFF 2 (play every chord - cept the E's and A's at the end of the chorus) its 
easy if you listen
e-------------------------------------
B------5-----------------------------
G----------6----4-------6----------
D------------------------------------

Yeah, I'm alive.  And now I'm alive.  Yeah, I'm alive.	


OUTRO RIFF
																																				E let ring                                  E let ring
e---------4-------5----4-----------------------------------4--------5--4---------------------------
B---	5------5--------------5-------------------------5---------5---------5-------------------------
G------------------------------------------------------------------------------------------------------
D------------------------------------------------------------------------------------------------------

																																			E let ring                                  E let ring
e---------4-------5----4-----------------------------------4--------5--4-----------------------------
B---	5------5--------------5-------------------------5---------5---------5----------------------------
G---------------------------------------------------------------------------------------------------------
D---------------------------------------------------------------------------------------------------------

NOW DO THE SAME THING BUT WITH OUT THE BREAK IN BETWEEN 
 ANTOHER 7 times
then just play this

e-----5--4------|-----5--4-------5--4-------5--4-----5--4------5--4------5--4-------5--4------5--4---
B----------------|-------------------------------------------------------------------------------------------------
G----------------|-------------------------------------------------------------------------------------------------
D----------------|------------------------------------------------------------------------------------------------

e-----5--4-------5--4-------5--4-----5--4------5--4------5--4-------5--4------5--4--------------
B------------------------------------------------------------------------------------------------------------
G---------------------------------------------------------------------------------------------------------
D---------------------------------------------------------------------------------------------------------

e---7--5--4--5---------7--5--4--5-------7--5--4--5----------7--5--4--5------
B------------------------------------------------------------------------------------------------------------
G---------------------------------------------------------------------------------------------------------
D---------------------------------------------------------------------------------------------------------

e-------------------------------------------------------------------------------------------------------------
B-------5-----7-7-7----5-5---7------5---7------Just fiddle around like this 
G----------------------------------------------------









Acordes para guitarra
x

Todo acerca de Oasis