Acordes para guitarra

Indice Mac Salvador

guitartabs

=====================================================================
| ARTISTA: Mac Salvador                                             |
| CANCION: ISABEL                                                   |
| AUTOR:   Mac salvador                                             |
| ALBUM:   Hijos de la calle (2004)                                 |
+------------------------------------------------------TAB-mslv0042-+
| TRANS:   Javier E                                                 |
=====================================================================

:)Buen día amigos del Atame...Aqui les mando esta canción que
me encanta, y que por cierto es muy bonita...Y se la quiero
dedicar a una Gordita bien flaca a quien yo quiero un monton...
:)...

Sin mas rodeos ahi les va:
OJO la primera guitarra hace todos los arpegios y piqueos.

INTRO:
Sim
1)-9/7-----7----7---9/7-7---9/7-----7-----7-9-7-------
2)-------7----7---7---------------7-----7-------10----
3)-----7----7-------------------7-----7---------------
4)----------------------------------------------------
5)----------------------------------------------------

1)-9/7-----7----7---9/7-7---9/7-----7-----7-9-7----7--
2)-------7----7---7---------------7-----7-------10----
3)-----7----7-------------------7-----7---------------
4)----------------------------------------------------
5)----------------------------------------------------

1)---------------0-2-0-2-4-5-4-5/7-5-----777/9------
2)-------2-3-2-3---------------------7----------7---
3)-4-3-4----------------------------------------7---
4)--------------------------------------------------
5)--------------------------------------------------

1)------------------------------------------------
2)------------------------------------------------
3)---11-9-7-9-7-9-11------------------------------
4)-9-----------------9-------4-2-0-2-0-2-4--------
5)-------------------------2---------------2------
6)------------------------------------------------

           Sim                  LA
Yo ande por ti cual mendigo de amor
                                1)-------0---------0-----
                                2)-2---2---2-----2---2---
                                3)---2-------2---------2-
                                4)-----------------------
                                5)-0---------------------
                                6)-----------------------

      Sim            Fam#
y te busque en mi soledad
                     1)-222-222-222-222-222...----
                     2)---------------------------


      RE              LA                  Sim
para  vivir           si.........preso de ti
   1)-------3/2---2-  -------0-----      4)---4-2-0-2-0-2-4---
   2)-3---3-----3---  -2---2---2---      5)-2---------------2-
   3)---4-----------  ---2-------2-      6)-------------------
   4)-0-------------  -------------
   5)---------------  -0-----------


           Sim            LA
No pienso amor perderte jamás
     Sim                Fam#
no dejes que me quede sin ti
     RE               LA                     Sim
no volveré            no.........a vivir otra vez


CORO:
:) En esta parte la primera guitarra hace el arpegio dos
veces en cada nota .
:) Al final les pongo los arpegios de todas las notas.

    RE
De tanto que te busque
    RE
de tanto que te llore
       Sim
y te encontre
   RE
viviendo en mi soledad
   RE
bebiendo llanto de amor
                 Sim
por encontrarte a ti
               1)---------------0-0/2---
               2)-------2-3-2-3---------
               3)-4-3-4-----------------
               4)-----------------------

      SOL           RE
Me revele con mi destino
      LA            Sim
buscandote para ser felíz
                    1)---------------0-0/2---
                    2)-------2-3-2-3---------
                    3)-4-3-4-----------------
                    4)-----------------------

           SOL          RE
Hoy te encontre en mi camino
         LA         Sim
no puedo ya vivir sin ti... Fin


:)Y se repite todo de nuevo.


ARPEGIOS:
Estos son todos los arpegios... la nota Re la pueden hacer
de una de estas dos formas, (la primera suena mejor).
RE                     RE
1)-------3/2---2---  ----------2---------
2)-3---3-----3-----  ----3---3---3-------
3)---2-------------  ------2-------2-----
4)-0---------------  ----0---------------
5)-----------------  --------------------
6)-----------------  --------------------

La                  Sim                Sol
1)-------0------    1)-------2------   1)-------3------
2)-2---2---2----    2)-3---3---3----   2)-0---0---0----
3)---2-------2--    3)---4-------4--   3)---0-------0--
4)--------------    4)--------------   4)--------------
5)-0------------    5)-2------------   5)--------------
6)--------------    6)--------------   6)-3------------

:)Bueno, Espero que esta colaboracion les sirva, La hice
con mucho cariño...ahhhh y agradezco a mi tocayo que hizo
la primera colaboracion de esta misma canción la cual
me sirvió mucho y me ahorro tiempo para sacarla :).

:)Cualquier duda pueden escribirme.

:)Bueno eso es todo, me despido... y reciban un saludo desde
la ciudad de los vientos : JULIACA- PERÚ.


1128904089

Acordes para guitarra
x

Todo acerca de Mac Salvador