Acordes para guitarra

Indice Luis Miguel

guitartabs







Luis Miguel
Transcripción de ARCESIO VIVAS FRANCO
lmig0465


  1 --------------------------------------------------
  2 ---1--0131010-----0131010------1------------------
  3 -0-------------2-----------2--------020----02-----
  4 ----------------------------------------3-----32--
  5 --------------------------------------------------
  6 --------------------------------------------------
    MUJER SI PUEDES TU CON DIOS HABLAR PREGUNTALE SI
    YO ALGUNA VEZ TE HE DEJADO DE ADORAR

  1 --------------------------------------------------
  2 ---1--0131010-----0131010-----1-------------------
  3 -0-------------2-----------2--------20----02------
  4 ----------------------------------------3------32-
  5 --------------------------------------------------
  6 --------------------------------------------------
    Y AL MAR ESPEJO DE MI CORAZON LAS VECES QUE HA
    VISTO  LLORAR LA PERFIDIA DE TU AMOR

  1 ---------------------------------------------------
  2 -------------------------0------01--333--1-000-1---
  3 ---------0-22212---1212-----1----------------------
  4 -02--333-------------------------------------------
  5 ---------------------------------------------------
  6 ---------------------------------------------------
    TE HE BUSCADO DONDE QUIERA QUE YO VOY Y NO TE
    PUEDO HALLAR PARA QUE QUIERO OTROS BESOS SI

  1 ----------------------------------------------------
  2 --000-----------------------------------------------
  3 -------2-0-2-0--------------------------------------
  4 ----------------3-2---------------------------------
  5 ----------------------------------------------------
  6 ----------------------------------------------------
    TUS LABIOS NO ME QUIEREN YA BESAR

  1 -----------------------------------------------------
  2 -----1---0131010-----0131010-----1-------------------
  3 --0---------------2-----------2-----20----02---------
  4 ----------------------------------------3-----3--1---
  5 -----------------------------------------------------
  6 -----------------------------------------------------
     Y TU QUIEN SABE POR DONDE ANDARAS QUIEN SABE
     QUE AVENTURAS TENDRAS QUE LEJOS ESTAS DE MI





Acordes para guitarra
x

Todo acerca de Luis Miguel