Acordes para guitarra

Indice Lonely Boys

guitartabs

=====================================================================
| ARTISTA: Los Lonely Boys                                          |
| CANCION: LA CONTESTACIÓN                                          |
| AUTOR:   -?-                                                      |
| ALBUM:   Los Lonely boys ()                                       |
+------------------------------------------------------TAB-lboy0013-+
| TRANS:   Luis                                                     |
=====================================================================

Esta es la verdadera versión.

Con capo en el primer traste.

Intro: C - E - Am - Am/G - F - Fm - C
e|--------------------------------------------------------0--|
B|-----5-6-8.------5-6-5--------5---5--6-5---------------1---|
G|-5-7---------5-7-------7-5.-7---4--------7-5----------0----|
D|---------------------------------------------6-5-3---2-----|
A|----------------------------------------------------3------|
E|-----------------------------------------------------------|

	     C	  E	Am
A poco no está duro pa’ ti
   Am/G		F       Fm	    C
pa’ que sigues así si aquí estoy yo.
	     C	  E	 Am
Nunca te haz sentido que ya
   Am/G	     F       Fm	    C
parece el final pues fíjate en mi
	E	F	G
encontrarás contestación.
	   C	    E	     Am
Fijate en ti, muy dentro de ti
   Am/G			F       Fm
tú vas a encontrarme a mi para darte amor.

*CORO*
Am		  E
Qué evita que no sientes
Am		C	  D
cuando te tengo cerca de mi
		F		    Em
yo quiero hacerte bien, quiero apretarte más
Dm		G    C
yo quiero que sepas tú
		E	  Am
que cuando estás cerca de mi
   Am/G		   F       Fm		     C
ya no tienes que llorar porque yo estaré allí
	E	F    G
para darte mi amor.

Solo: C - E - Am - Am/G - F - Fm - C (x2)
e|----------------------------------------------------
B|----------------------------------------------------
G|-7/9.-7.-7/5.-5-4/5/4-4/5./-3---8/7-7/5-7/9-9/11..--
D|----------------------------------------------------
A|----------------------------------------------------
E|----------------------------------------------------

e|--------------------------------------------------------------------------------------|
B|-----------------------------------6/5--------8-6-----------------------5/6-5---------|
G|-<13>.-13-<12>-12--7/8-7-5-5-7---5-----5-5.-5-----5-----------5---------------5-------|
D|----------------------------------------------------5-3-2/3-2---------5---------5-7.--|
A|------------------------------------------------------------------5/7-----------------|
E|--------------------------------------------------------------------------------------|


*CORO*


Solo: C - E - Am - Am/G - F - Fm - C
e|------------------------------------------------------------------|
B|-----5-6-5----5/6/5-5---------8/10-8-----------6/5------------6.--|
G|-5-7-------7----------7-5/7----------7/8/7-5.------5---7.-5-7-----|
D|-----------------------------------------------------5------------|
A|------------------------------------------------------------------|
E|------------------------------------------------------------------|


*Intro*



	           --------
	        º-| ¤    ¤ |-º
	        º-|  LuïS  |-º
	        º-| ¤    ¤ |-º
	                 /
		    |    |
	·===========================·
	·===========================·

*Si hubiese algún error o alguna duda, escribe al mail o avisa por MSN*


1128892946

Acordes para guitarra
x

Todo acerca de Lonely Boys