Acordes para guitarra

Indice Llajwa

guitartabs







Llajwa
Transcripción de ignacio cossio
llaj0011


parte a 

-------------------
-------------------
-------------------
----5-5-5---4----3- 
---3-3-3-3-4-4--3-3
--0-------2----1---

parte b
-------------------
-------------------
-------------------
----5-5-5---4----3-
---3-3-3-3-4-4--3-3
--0-------2----1---
parte c
---------------------------
---------------------------
5-4-2-3-2~~~-5-4-2-3-2-1~~~
---------------------------
---------------------------
---------------------------

parte d
---------------------
---------------------
---------------------
---5-5-5-5---4-----3-
---5-5-5-5---4-----3-
3-3-3-3---2-2-2-1-1-1

forma de tocar

parte a
(5 veces)
parte b (verso)
( 4 veces)
parte c
(1 vez)
parte b (verso)
(4 veces)
parte c
( 1 vez)
parte b (verso)
( 4 veces)
parte c
(1 vez)
parte a
(2 veces)
parte d
(8 veces)
parte b
(4 veces)





Acordes para guitarra
x

Todo acerca de Llajwa