Acordes para guitarra

Indice Llajtaymanta

guitartabs







Llajtaymanta
latinmail.com
lljt0062


  esta va de dicada
  para pamela

   intro G C E A-

 E|------------------------|--------------------|
 B|------------------------|--------------------|
 G|------------------------|--------------------|
 D|-2-2-2-0-0---O-O-O------|--------------------|
 A|-----------3-------3-3-0|-O-O-O-----------3-0|
 E|------------------------|-------3-3-3-0-0----|
   esta pate se rrepite
      ( sugerencia )
 G|-----------------0-0-0-0|-2-0----------------|----------------------|
 D|--------------2-3-------|----3-2-0------0-2-0|-0-0-2-0--------------|
 A|--0-2-0--0-2-3----------|----------0-2-3-----|---------3-2-2-2-0-0-0|
 E|-0------3---------------|--------------------|----------------------|

 G|------0-2-0-0-0-2-0------
 D|-0-2-3--------------3-2-0
 A|-------------------------
 E|-------------------------
   ESTA ES LA PARTE DE LOS VIENTOS EN BAJOS
    G C E A- en los vientos
    A-
 para que la vida
   D-
 sino hay cariņo
  F     G     C
 sino hay felicidad
    A-
 imilla bandida
   D-
 por amor te pido
  F       G   C
 vamonos a la ciudad
  G
 por que tus papa
        C
 nos quieren separa
   E             A-
 dicen que soy casado
   G
 tu savez bien
           G
 que yo te quiero de verdad
  E            A-
 que todo es pasado
   A-   C     E             A-
 pero maņana muy lejos nos iremos
           c
 sinos encuentran
  E             A-
 a buelos nos aremos

  y en los vientos
   A-  D-  F  G  C | se repite 2 veses
   G  C   E   A-   | se repite 2 veses

    es pero que les sirva
    si tienen sugerencias escrivan    andru1624





Acordes para guitarra
x

Todo acerca de Llajtaymanta