Acordes para guitarra

Indice Ley

guitartabs







la Ley
Transcripción de Carlos Legorreta Fernandez
lley0932


Esta es una super rolototota, que en lo personal es
a segunda rola de la ley que mas me gusta despues
Y una sugerencia, para que se escuche mejor, que toquen 
dos liras esta rola, una electroacustica que va a llevar
los ritmos y otra electrica con un buen pedal de efectos
que es la que va a hacer los arreglos, espero y les guste mi
trabajo y dice asi:

Intro:

   Fm      A#sus4
Gr 1:
e|--1-1-1—-1-1-1--|
b|--1-1-1—-1-1-1--|
g|--1-1-1—-3-3-3--|  X4
D|--3-3-3—-3-3-3--|
A|--3-3-3—-1-1-1--|
E|--1-1-1—-1-1-1--|

Gr2
e|----------------------|-----------------------------|
b|----------------------|-----------------------------|
g|--10~-12/13-13/17/15~-|--20/17-17/15-15~/13~/12/9~--|
D|--x-------------------|-----------------------------|
A|--x-------------------|-----------------------------|
E|----------------------|-----------------------------|
  (Esto entra cuando la Gr 1 esta en el tiempo 3)
   (Procuren deslizar el slide en todo momento de cambio de nota)

 Gr1
    Fm       A#sus4     Fm     A#sus4 
e|--1-----------1--------1-------1---------|
b|--1-----------1--------1-------1---------|
g|--1-----------3--------1-------3---------|
D|--3-----------3--------3-------3---------|
A|--3-----------1--------3-------1---------|
E|--1-----------1--------1-------1---------|
      Te vi llorando    por el
    Fm       A#sus4    Fm    A#sus4 
e|--1----------1--------1------1---------|
b|--1----------1--------1------1---------|
g|--1----------3--------1------3---------|
D|--3----------3--------3------3---------|
A|--3----------1--------3------1---------|
E|--1----------1--------1------1---------|
     Como la lluvia al revez

   Fm    A#sus4    Fm    A#sus4 
e|--1-------1--------1------1---------|
b|--1-------1--------1------1---------|
g|--1-------3--------1------3---------|
D|--3-------3--------3------3---------|
A|--3-------1--------3------1---------|
E|--1-------1--------1------1---------|
      Y derramaste   tu sed
Gr 2
    Fm    A#sus4      Fm   A#sus4
e|---------------------------------|  Esto va de fondo 
b|---------------------------------|  mientras se canta
g|---------------------------3/5~--|  “Y derramaste tu sed”
D|----3----------------3-----------|
A|---------1~--------------1-------|
E|--1---------------1--------------|

( Este efecto se logra con un efecto que en mi pedalera 
dice “voxphs”o en su defecto metanle un efecto de “Vibro”)


    Fm     A#sus4    Fm  A#sus4 
e|--1--------1--------1-----1---------|
b|--1--------1--------1-----1---------|
g|--1--------3--------1-----3---------|
D|--3--------3--------3-----3---------|
A|--3--------1--------3-----1---------|
E|--1--------1--------1-----1---------|
    En una suite del hotee-e-e-eel
Gr 2
    Fm    A#sus4      Fm   A#sus4
e|---------------------------------| Igualmente se escucha 
b|---------------------------------|  de fondo
g|---------------------------3/5~--| 
D|----3---------------3------------|
A|---------1---------------1-------|
E|--1---------------1--------------|
 
Gr 1
    G#   A#m   G#   A#m
e|--4----6-----4----6---|
b|--4----6-----4----6---|
g|--5----6-----5----6---|
D|--6----8-----6----8---|
A|--6----8-----6----8---|
E|--4----6-----4----6---|
   Malibu   Fuiste tu

Gr 2
 G#    A#m
e|--4~/6----6-6------| Aquí entra con un poco de distorsión
b|--4~/6—-6-----6----| la guitarra 2
g|--5~/6----------6--| “Esta es la parte donde dice Malibuuu”
D|--6~/8-------------|
A|--6~/8-------------|
E|--4~/6-------------|

   Gr 2
   G#    A#m
e|--4----6---|
b|--4----6---| “Esta donde dice Fuiste tu-uuu”
g|--5----6---|
D|--6----8---|
A|--6----8---|
E|--4----6---|

  G#    A#m           G#m A#m
e|--4~/6----6-6--------4—-6~----|
b|--4~/6—-6-----6------4—-6~----| Hasta esta parte ya 
g|--5~/6----------6----5—-6~----| abarcamos hasta el minuto
D|--6~/8---------------6—-8~----|  1:01
A|--6~/8---------------6—-8~----|
E|--4~/6---------------4—-6~----|
    Malibu-uuuuuu      Malibu-uu

(Ahora bien, vamos a separar bien las guitarras para que no se me confundan, 
la siguiente parte, la guitarra acústica se queda haciendo el ritmo con las notas 
que voy a poner, la segunda guitarra va a hacer unos rifft´s que voy a poner, 
pero tengan cuidado por que la lira acústica cambia a otro efecto, pero yo 
les diré cuando ok!!!!!!)


Fm           A#m   Fm   A#m    “Gr 2 Rifft 1”
   Te evidenciaste mujer
Fm           A#m   Fm        A#m     “Gr 2 Rifft 1”
   Mis poros piden volver a creer 
  G#    A#m    “Gr 2 Rifft 2”
Malibu-uu-uu  
  G#    A#m    “Gr 2 Rifft 2”
Malibu-uu-uu 
   G#        A#m “Gr 2 Rifft 2 “
Fuiste tu uu-uuu
  G#    A#m       “Gr 2 Rifft 3”
Malibu-uu-uu
-------------------------------------------------------------
 Rifft 1
Gr 2
    Fm    A#sus4      Fm   A#sus4
e|---------------------------------| 
b|---------------------------------| 
g|---------------------------3/5~--| 
D|----3---------------3------------|
A|---------1---------------1-------|
E|--1---------------1--------------|

Rifft 2
  G#    A#m           G#  A#m
e|--4~/6----6-6--------4—-6~----|
b|--4~/6—-6-----6------4—-6~----|  
g|--5~/6----------6----5—-6~----| 
D|--6~/8---------------6—-8~----| 
A|--6~/8---------------6—-8~----|
E|--4~/6---------------4—-6~----|
Rifft 3
   G#   A#m
e|--4----6---|
b|--4----6---| 
g|--5----6---|
D|--6----8---|
A|--6----8---|
E|--4----6---|
-------------------------------------------------------------------
F#         G#           D#sus4    “Gr 2 Rifft 4”
   Cuantas veces te ocultaste-ee-e
           F#             G#         D#sus4 “Gr 2Rifft 4” 
   Si al final tu amor es para envenenarme-eeeee
            A#     A#sus4
   Y traiciona-a-a-aaar
----------------------------------------------------------
Riff 4
     F#          G#         D#sus4
e|--14------14—-16-------16-6-----6-------6-|
b|--14-14-------16-16-------6-6------6------|
g|--15----15----17----17----8---8------8----|
D|--16----------18----------8------------8--|
A|--16----------18----------6---------------|
E|--14----------16----------6---------------|
------------------------------------------------------------
(Ahora en esta parte, en el coro, la lira acústica le mete un buen distor a su  efecto
 y hace las siguientes notas con quinta, mientras la guitarra 2 
(Gr2) hace unos arreglos muy interesantes,
 que van mas o menos así, ojo la lira que lleva el ritmo lleva 
el mismo ritmo que el bajo, así que intenten imitar 
el ritmo del bajo para que se escuche igual a la canción)

Coro:

A#5        C5              C#5      “G2 Rifft 5”
    En tu mundo no existen limites
           D#5
    Que te puedan atrapar
A#5      C5                 C#5
    Eres como el viento que enciende el fuego
       D#5
    Quemando la verdad
A#5        C5            C#5
    Tus mentiras van cosechando culpas
        D#5              F5  “G2 Rifft 6”
    Que brotan en el mar

  Puente:
     A#m    y Gr 2 toca el Rifft 7
-----------------------------------------------------------

Gr 2
Rifft 5
e|-----16-15----15-16-15----15-16-15----15-16-15----15-16-15|
b|--18-------18----------18----------18----------18---------|
g|----------------------------------------------------------|
D|----------------------------------------------------------|
A|----------------------------------------------------------|
E|----------------------------------------------------------|

(Ojo, el Rifft 5 se toca en lo que dura todo el coro, 
mantengan el ritmo que tiene la rola, no esta difícil pescarlo.)

Rifft 6
e|------------------------------------------------------|
b|------18-18----18---18-18—-18—-18-18—-18----18-18-18~-|
g|--15--------15---15------15—-15-----15---15-----------|
D|------------------------------------------------------|
A|------------------------------------------------------|
E|------------------------------------------------------|
 
   Rifft 7 (2:21 min)
             A#m
e|------------------------------------|
b|------------------------------------|
g|--15/17-15-15~------12-13-12----12~-|
D|-----------------15----------15-----|
A|------------------------------------|
E|------------------------------------|
 (El Rifft 6 igual mente se mantiene el ritmo, se deja sonando en el numero 18,
 y se sigue con lo demás, creo que no esta muy complicado, el Rifft 7, 
 se toca en el puente de la canción.)
-------------------------------------------------------------

G#           A#m     G#    A#m  “Gr 2 Rifft 8”
   No llores para conmover
G#           A#m     G#     A#m  “Gr 2 Rifft 8”
   Si tu eco pide volver al hotel
     G#       A#m  “Gr 2 Rifft 2”
   Malibu-uu-uu
       G#        A#m  “Gr 2 Rifft 2”
   Quieres tu-uu-uu

    G#      A#m “Gr 2 Rifft 2”
  Malibu-uu-uu
    G#      A#m  “Gr 2 Rifft 3”
  Malibu-uu-uu
-------------------------------------------------------------

Rifft 8
       G#          A#m            G#            A#m
  PM|-------------------------------------------------|
e|-----------------6----------------------------6-------|
b|--------4~---------6---------------4~-----------6-----|
g|------5--------6-----6-----------5---------6------6~--|
D|----6--------8----------8~-----6---------8------------|
A|-----------8-----------------6---------8--------------|
E|------------------------------------------------------|
-------------------------------------------------------------

F#         G#         D#sus4    “Gr 2 Rifft 4”
   Cuantas veces intentaste
           F#             G#          D#sus4 “Gr 2Rifft 4” 
   Si al final hay tantas formas de entragarse
          A#     A#sus4
   Para ama-a-aar

(Ahora viene la mejor parte de la rola, el segundo coro, 
la Guitarra 1 mantiene las notas con distorsión, y la guitarra 2 hace unos arreglos
 muy interesantes, voy a poner todos los arreglos, pero si no le entienden, 
 sigan la rola para hacerlos a la perfección)

Coro:
Gr 1

A#5        C5              C#5      
    En tu mundo no existen limites
           D#5
    Que te puedan atrapar
A#5      C5                 C#5
    Eres como el viento que enciende el fuego
       D#5
    Quemando la verdad
A#5        C5            C#5
    Tus mentiras van cosechando culpas
        D#5              
    Que brotan en el mar
A#5      C5            C#5           D#5
    Encerrandote en un laberinto de disconformidad
(Ahora va lo que hace la guitarra 2 en esa parte de la canción.)
   Gr 2.
e|----------------------------------------------------|
b|---------------13----------13-----------13----------|
g|--/18-18v~-----15brbv~-----15brbv~------15brbv~-----|
D|----------------------------------------------------|
A|----------------------------------------------------|
E|----------------------------------------------------|
  En tu mundo no existen limites que te puedan atrapar
e|---------------------------------------------------------|
b|------------------------------------------18-18-18-18-18~|
g|--/18-18v~-------/20-20bv~----/20-20bv~---15-15-15-15-15~|
D|---------------------------------------------------------|
A|---------------------------------------------------------|
E|---------------------------------------------------------|
 Eres como el viento que enciende el fuego quemando la verdad
e|------------------------------------------------------|
b|------18-18----18---18-18—-18—-18-18—-18----18-18-18~-|
g|--15--------15---15------15—-15-----15---15-----------|
D|------------------------------------------------------|
A|------------------------------------------------------|
E|------------------------------------------------------|
           Tus mentiras van cosechando culpas 
e|-----19bv~-----19v~------13---------19----------------|
b|-------------------------16brv~-----22brbv~-----------|
g|------------------------------------------------------|
D|------------------------------------------------------|
A|------------------------------------------------------|
E|------------------------------------------------------|
  Que brotan en el mar encerrándote en un laberinto 

e|--------13---13------------|
b|----13----13---13~----13r~-|
g|----15b---------------13r~-|
D|---------------------------|
A|---------------------------|
E|---------------------------|
  De disconformida-a-aa-aad

(El solo lo hace la guitarra 2, para que se les haga mas fácil hagan una semicejilla 
en el traste 13 mientras, 
la guitarra 1 hace el acompañamiento)

  Solo
   (3:51 min)
  A#5          C5       C#5         D#5
e|------13----13--------13----13---------------------|
b|--13-----13-----13~------13----13-16bvvv~\\\\\\\\\-|
g|--15b----------------------------------------------|
D|---------------------------------------------------|
A|---------------------------------------------------|
E|---------------------------------------------------|
      A#5                  C5            C#5      D#5
e|----------------------|------13----13---------------------|
b|--16br-14h16----------|--13-----13------------------13r~//|
g|-------------15~-15br-|--15b----------13------------13r~//|
D|----------------------|---------------15br----------------|
A|----------------------|------------------------15vv~------|
E|----------------------|-----------------------------------|
        A#5                 C5
e|----------------------------------------------------|
b|--6----------9----------11------------13------------|
g|--8brbvv~---11brbvv~----13brbvv~------15brbvv~-////-|
D|----------------------------------------------------|
A|----------------------------------------------------|
E|----------------------------------------------------|
    (La guitarra que hace el acompañamiento en el solo cambia de ritmo,
 solo agarren bien los cambios de nota y ya!!)
 
A#5        C5              C#5      
    En tu mundo no existen limites
           D#5
    Que te puedan atrapar
A#5      C5                 C#5
    Eres como el viento que enciende el fuego
       D#5
    Quemando la verdad
A#5        C5            C#5
    Tus mentiras van cosechando culpas
        D#5              
    Que brotan en el mar
A#5      C5            C#5           D#5
    Encerrándote en un laberinto en donde el miedo
           F5
    Es natura-a-aa-aaal
   Gr 2.
e|----------------------------------------------------|
b|---------------13----------13-----------13----------|
g|--/18-18v~-----15brbv~-----15brbv~------15brbv~-----|
D|----------------------------------------------------|
A|----------------------------------------------------|
E|----------------------------------------------------|
  En tu mundo no existen limites que te puedan atrapar
e|---------------------------------------------------------|
b|------------------------------------------18-18-18-18-18~|
g|--/18-18v~-------/20-20bv~----/20-20bv~---15-15-15-15-15~|
D|---------------------------------------------------------|
A|---------------------------------------------------------|
E|---------------------------------------------------------|
 Eres como el viento que enciende el fuego quemando la verdad
e|------------------------------------------------------|
b|------18-18----18---18-18—-18—-18-18—-18----18-18-18~-|
g|--15--------15---15------15—-15-----15---15-----------|
D|------------------------------------------------------|
A|------------------------------------------------------|
E|------------------------------------------------------|
           Tus mentiras van cosechando culpas 
e|-----19bv~-----19v~------13---------19----------------|
b|-------------------------16brv~-----22brbv~-----------|
g|------------------------------------------------------|
D|------------------------------------------------------|
A|------------------------------------------------------|
E|------------------------------------------------------|
  Que brotan en el mar encerrándote en un laberinto 
                       F5
e|-----------------------x--|
b|-----------------------x--|
g|----------------------10--|
D|----------------------10--|
A|----------------------8---|
E|----------------------x---|
  En donde el miedo es natural

--------------------------------------------------------

    A#      A#m (Este acorde se ocupa desde que inicia toda 
e|--1-	e|--1    la banda después del intro)
b|--3-	b|--2
g|--3-	g|--3
D|--3-	D|--3
A|--1-	A|--1
E|--1-	E|--1

    D#sus4
e|--6		
b|--6
g|--8
D|--8
A|--6
E|--6	
     (Notas que van con distorsión y ocupadas en el coro)
                                                
  A#5        C5       C#5       D#5             
e|--x	e|--x	e|--x	e|--x	e|--x	
b|--x	b|--x	b|--x	b|--x	b|--x	
g|--3	g|--5	g|--6	g|--8	g|--10	
D|--3	D|--5	D|--6	D|--8	D|--10	
A|--1	A|--3	A|--4	A|--6	A|--8	
E|--x		E|--x	E|--x	E|--x		

Gr 1
   F5
e|--x
b|--x
g|--3
D|--3
A|--1
E|--x

------------------------------------------------------
Descifrado de símbolos
 b =   Full ( Estirar la cuerda)
 r =   Bajar del full (Bajar la cuerda)   
 h =   Ligado de notas
 p =   Desligado de notas
 / =   Slide
 v =   Vibrar la cuerda
 ~ =   Mantener sonando la nota
 x =   Opacar la cuerda
------------------------------------------------------------
En algunas partes pongo el tiempo en el que se esta dando
el arreglo en la cancion, traten de hubicarlo en la
musica
y siganlo, pongan un poquito de oido y veran que les
va a quedar de huevos estos arreglitos..

Esta rola la quiero dedicar a toda la gente que gusta
de la buena musica en particular de la ley, ya que es
un excelente grupo con un magnifico concepto musical
y Pedro Frugone es un muy buen guitarrista, que hace 
magnificos arreglos 
en sus canciones, espero y les haya gustado esta tab
por que como les habia comentado anteriormente que es
mi segunda rola favorita de la ley.

Arriba el mejor grupo de rock latino que hay en el mundo
LA LEy
 si les gusto esta tab., visiten otras de mis colaboraciones
de la ley

Surazul
Amate y Salvate
Dia cero
Todas en perfecta tablatura con todos los arreglos

En hora buena, sugerencias o comentarios a mi mail porfavor

Carlos




=)





Acordes para guitarra
x

Todo acerca de Ley