Acordes para guitarra

Indice Lenio

guitartabs

===================================================
| Le~o                                            |
| EL TREN                                         |
| ---???---                                       |
| ---???--- ()                                    |
============================================TAB====

Intro:
  A  G  F  E
|------------|
|------------|
|-14-12-10-9-|
|-14-12-10-9-|
|-12-10-8--7-|
|------------|

Riff:1
  D           F
|--------------------------------------|
|--------------------------------------|
|-7-7-7-7-7-7-10-7-10-10-7--10-7-10-10-|
|-7-7-7-7-7-7-10-7-10-10-7--10-7-10-10-|
|-5-5-5-5-5-5--------------------------|
|--------------------------------------|

Riff:2

|----------------|
|-----------10-9-|
|-8-8-10-10-10-9-|
|-8-8-10-10-8--7-|
|-6-6-8--8-------|
|----------------|

Orden del tema:
Intro
Riff:1 (repetido varias veces)
Riff:2 (durante el estribillo: “Si controlas tu viaje...”
Riff:1
Riff:2
Solo:1 (sobre el cual suenan Riff 1 y 2)
|------------------------------)--)(------------------
|---)------------------------15-15--15p12-------------
|-12-12-10h12p10-------10-----------------14-12h14p12-
|----------------10-12--------------------------------
|-----------------------------------------------------
|-----------------------------------------------------

--------------------------------------------------)--)
------------------------------------------------15-15-
-------------10-------------------12p10---------------
-12-10h12p10-------10h12p10h12p10------...10----------
------------------------------------------------------
------------------------------------------------------



-(---------------------------------------------------------
--15p12--------------------------------------------)-------
--------14-12h14p12--------------10--------10----12--12-10-
---------------------12-10h12p10-------12-----12-----------
-----------------------------------------------------------
-----------------------------------------------------------
                                             
---------------------------------------------   ---------
---------------------------------------------   ---------
----12-10-9-7-10-7-10-10-5/7--10-7-10-10-5/7-...---------
-12---------7-10-7-10-10-5/7--10-7-10-10-5/7-...-5h7p5-7-
------------5------------3/5-------------3/5-   ---------
---------------------------------------------   ---------
                          /-----------x2------------\
-----------------------------------------------------|
-----------------------------------------------------|
-----------------------7-7-7-7-6-6-6-6-7-7-7-7-8-8-8-|
-5h7p5---5h7p5---5h7p5-7-7-7-7-6-6-6-6-7-7-7-7-8-8-8-|
-------7-------6-------5-5-5-5-4-4-4-4-5-5-5-5-6-6-6-|
-----------------------------------------------------|

Solo:2
|----------------
|----------------
|-----5h7--------
|-5h7-----etc...-
|----------------
|----------------

Bueno el último solo es demasiado, pero bueno creo que lo demás
está más o menos bien sacado, porque el otro tab que hay por ahí es un poco mierda,
y es un tema cojonudo.
Ale, a ver si le sirve a alguien de algo.
Para dudas o lo que sea escribid a mi dirección.

===================================================
Colaboracion de Ignacio Herrero Mardomingo



Acordes para guitarra
x

Todo acerca de Lenio