Acordes para guitarra

Indice Legion

guitartabs







Legion
Transcripción de gary03
legi0072


Este es el intro de esta rola, seguramente muchos ya
la querían tocar y como nadie lo ha subido yo se los paso...


e||--------------9-11-11/12-11------9-9h11----||
B||-10-12-10-12-----------------12---------10-||
G||-------------------------------------------||
D||----------------------------------------/8-||
A||-------------------------------------------||
E||-------------------------------------------||

e||-11h12~------------------------------------||
B||-----------10--10/12---3-(3/9)-------------||
G||-------------------------------------------||
D||--------------------------2/7--------------||
A||-------------------------------------------||
E||-------------------------------------------||


Un muy buen intro de Legión, espero que les guste
y ojala que les salga bien. Si tengo algún error por
favor me lo hacen saber...





Acordes para guitarra
x

Todo acerca de Legion