Acordes para guitarra

Indice Legion

guitartabs

===================================================
| Legion                                          |
| MI MARIACHI                                     |
| Legion                                          |
| Retro (2004)                                    |
===================================================

Esta cancion no me costo nada sacarla y a ustedes
seguramente no les va a ser difícil tampoco...

Intro

e||---------------------------------------||
B||---------------------------------------||
G||---------------------------------------||
D||-9h10-10-9h10-10-9h10-10-9h10-10-12-12-||
A||-9h10-10-9h10-10-9h10-10-9h10-10-12-12-||
D||-9h10-10-9h10-10-9h10-10-9h10-10-12-12-||

G5                              B5
 Despierta, y deja abierta tu puerta,
                   C5
 Para que pueda cantarte desde aquí,
                 E5
 Para que pueda meterme por ahí...

G5                              B5
 Yo se que no, somos el mejor mariachi,
                      C5
 Pero he venido a cantarte mi canción,
                       E5
 Pero he venido a entregarte el corazón.

G5                                B5
 Será mejor que traigas ya tu equipaje,
                       C5
 Porque he venido a robarte para mi,
                  E5
 Y he decidido quedarme junto a ti...

(rasgueado) G B C E

G                               B
 Despierta, y deja abierta tu puerta,
                    C
 Para que pueda cantarte desde aquí,

 Para que pueda meterme por ahí...

G5                                  B5
 Yo se que no, puedo comprarte un diamante,
                       C5
 Pero he traído estas flores para ti,
                  E5
 Las he pasado cortando por ahí...

G5                                B5
 Será mejor que traigas ya tu equipaje,
                       C5
 Porque he venido a robarte para mi,
                  C5
 Y he decidido quedarme junto a ti...

 Y hoy toco mi mariachi solo para ti...

Terminas con esto:

e||---------------------------------------||
B||---------------------------------------||
G||---------------------------------------||
D||-9h10-10-9h10-10-9h10-10-9h10-10-12-12-||
A||-9h10-10-9h10-10-9h10-10-9h10-10-12-12-||
D||-9h10-10-9h10-10-9h10-10-9h10-10-12-12-||

e||-----------------||
B||-----------------||
G||-----------------||
D||-----------------||
A||-----------------||
D||-12-12-12-10-9-9-||

Acordes:

    G5  B5  C5  E5  G  B  C  E
e||-----------------3--2--3--0--||
B||-----------------3--4--5--0--||
G||-----------------0--4--5--1--||
D||-5---9---10--12--0--4--5--2--||
A||-5---9---10--12--2--2--3--2--||
D||-5---9---10--12--------------||

Algunas veces la E5 significa hacer esto:

e||-----------------------||
B||-----------------------||
G||-----------------------||
D||-----------------------||
A||-----------------------||
D||-9-10-9-10-9-10-9-10-9-||

Bueno eso es todo, escriban al mail por cualquier cosa...

===================================================
Colaboracion de gary03



Acordes para guitarra
x

Todo acerca de Legion