Acordes para guitarra

Indice Leandro Martinez

guitartabs







Leandro Martínez
Transcripción de Israel Antonio Fonseca
lmrt0023


Leandro Martinez
Deja de Llorar
by Israel Fonseca


Estamos frente a frente...
G|----------------------------------------------------|
D|----------------------------------------------------|
A|--4-------------------------------------------------|
E|-----4---6---4---2---------6--4---2-------6--4---2--|


Tus manos temblorosas...
G|----------------------------------------------------|
D|----------------------------------------------------|
A|--4-------------------4-----------------------------|
E|-----4-/6---4---2--------4-5-6---4--2--5-4----------|

Coro...
Deja de llorar...
G|----------------------------------------------------|
D|------------------------------------------8--6--4---|
A|--4-----------------4------------4------------------|
E|-----4--5-6-4--2-------4-5-6h4-2-----4-5-6--4--2----|

El Amor que esperas llegará...
G|----------------------------------------------------|
D|----------------------------------------------------|
A|--4----------------------------------4----6--1------|
E|-----1--2--4---6--4--2-----------6--4---------------|


La Noche ya se acerca...
G|----------------------------------------------------|
D|----------------------------------------------------|
A|--4-------------------------------------------------|
E|-----4---6---4---2---------6--4---2-------6--4---2--|


Siento Tristeza en mi interior...
G|----------------------------------------------------|
D|----------------------------------------------------|
A|--4-------------------4-----------------------------|
E|-----4-/6---4---2--------4-5-6---4--2--5-4----------|

Coro...
Deja de llorar...
G|----------------------------------------------------|
D|------------------------------------------8--6--4---|
A|--4-----------------4------------4------------------|
E|-----4--5-6-4--2-------4-5-6h4-2-----4-5-6--4--2----|


Te juro que sé amarte...
G|----------------------------------------------------|
D|----------------------------------------------------|
A|--4----------------------------------4----6--1------|
E|-----1--2--4---6--4--2-----------6--4---------------|

Coro...
Deja de llorar...
G|----------------------------------------------------|
D|------------------------------------------8--6--4---|
A|--4-----------------4------------4------------------|
E|-----4--5-6-4--2-------4-5-6h4-2-----4-5-6--4--2----|

Telefono Cel 09-9223503





Acordes para guitarra
x

Todo acerca de Leandro Martinez