Acordes para guitarra

Indice Le Punk

guitartabs







Le Punk
Chucho 
Transcripción de PETER
lpun0011


      Artista:Le Punk
      Canción: "Chucho" (C. Ramos, A. Fernández)
      Album: "La logia del Canalla"
       
Intro (X2): 
        Lam			           Mim
---------13-12-11-12--13-12-11-12--12-12------------------
-----------------------------------------12-12-11-12------
----------------------------------------------------------
----------------------------------------------------------
----------------------------------------------------------
----------------------------------------------------------

	  Mim				  Lam
--------------------------------13-12-12-11-12------------
---------13-12-11-12-13-12-11-----------------------------
----------------------------------------------------------
----------------------------------------------------------
----------------------------------------------------------
----------------------------------------------------------

Lam					    Mi
Creo que hoy me he levantado con dos pulgas menos......
Mi				 	Lam
de todas formas me he rascado igual.....
Lam					        Mi
He aprendido a no perder el culo siempre que te veo.....
Mi				     Lam
y a no llorar de pena siempre que te vas.
Rem		     Sol	     Lam
Cambiaria todas tus caricias por un hueso
Rem		              Sol	 Lam
si hace un par de meses no me miras al pasar...

ESTRIBILLO
Rem		      Sol	    Lam
Será que ya no soy el chucho de tu agrado...
       Mi	            Mi7
porque muerdo........cuando me hacen daño.....ohhhh

Riff Lam/Mi/Lam/MI

Lam				     Mi		
No se levantar la pata ni hacerme el muerto....
Mi			      Lam
no necesito que me saques a mear....
Lam				  	   Mi
No voy a traer tus zapatillas de andar por casa....
Mi			               Lam
no estaré al final de tu cadena, ...aaaamor....

Rem		    Sol	            Lam
Cambiaria todas tus caricias por un hueso
Rem		              Sol	Lam
si hace un par de meses no me miras al pasar...

ESTRIBILLO
Rem		      Sol	    Lam
Será que ya no soy el chucho de tu agrado...
       Mi	            Mi7
porque muerdo........cuando me hacen daño.....ohhhh


							
El punteo de los acordes es bastante sencillo y con un poco de practica, 
le cogereis el ritmillo a esta facil canción de la nueva gran banda de ese genio
llamado "Alfa" fernandez...
¡¡¡Salud, sol y marihuana a todos!!!... 





Acordes para guitarra
x

Todo acerca de Le Punk